Temas Diversos

Titanic

Temas Diversos

tabs

by  GUSTSILVA

save to print version add songbook text version e-mail correct tuner
chordsukulelecavacokeyboardtabbassdrumsharmonicaflute Guitar Pro
close

there isn't a video lesson for this song

chords

Titanic

	  		 
E |1-1-1-1-0-1---1-0-1--3-5-3---1-1-1-1-0--1---| 
B |--------------------------------------------1 
G |--------------------------------------------| (2x) 
D |--------------------------------------------| 
A |--------------------------------------------| 
E |--------------------------------------------| 
 

 
E |-----0------5-3-2-0--2-3-2-0-----------------| 
B |-3----------------------------3-2-3--3-------| 
G |---------2-----------------------------2-----| (2x) 
D |---------------------------------------------| 
A |---------------------------------------------| 
E |---------------------------------------------| 
 

 
E |-----0------5-3-2-0--2-3-2-0-----------------0-2-0----| 
B |-3----------------------------3-2-3--3-2-3---------3--| 
G |---------2--------------------------------------------| 
D |------------------------------------------------------| 
A |------------------------------------------------------| 
E |------------------------------------------------------| 
		  

See also:

tabs Legião Urbana - Tempo Perdido tabs Legião Urbana - Central Do Brasil tabs Raul Seixas - Rock das Aranhas tabs Nando Reis - Luz do Olhos tabs Raul Seixas - Tente outra vez tabs Jota Quest - Do seu Lado
e-chords

Other versions:

tabs Temas de Filmes - Titanic tabs Titanic - Titanic tabs Celine Dion - Titanic tabs Temas Diversos - Titanic tabs Sungha Jung - Titanic tabs Temas de Filmes - titanic (completa)
auto scroll beats size up size down change color hide chords drawings
tab show chords e-chords YouTube Clip e-chords hide all tabs e-chords go to top tab

share