Temas Diversos

The Goodfather

Temas Diversos

tabs

by  SABRJOAO

save to print version add songbook text version e-mail correct tuner
chordsukulelecavacokeyboardtabbassdrumsharmonicaflute Guitar Pro
close

there isn't a video lesson for this song

chords

The Goodfather

	  		 
E|------------------------| 
A|------------------------| 
D|------------------------| 
G|--2-------------------2-| 
B|----3-----3-3---3-1--3--| 
E|-----1--0--1--0---------| 
 

 
E|------------------------| 
A|------------------------| 
D|------------------------| 
G|--2-----------------2-0-| 
B|----3-----3-3---3-1-----| 
E|-----1--0--1--0---------| 
 

FINAL 
 
G|-0-2--0-2-----| 
B|----3-----1-3-| 
E|------0-------| 
 

D|-3----------| 
G|--2---0-2---| 
B|---1-0---1-3| 
E|------------| 
		  

See also:

tabs Barão Vermelho - O Tempo Não Pára tabs Engenheiros do Hawaii - Infinita Highway tabs Nando Reis - Por onde andei tabs Legião Urbana - Vento no Litoral tabs Paralamas do Sucesso - Alagados tabs Legião Urbana - Pais e Filhos
e-chords

Other versions:

tabs Nino Rota - The goodfather tabs Temas Diversos - The Goodfather
auto scroll beats size up size down change color hide chords drawings
tab show chords e-chords YouTube Clip e-chords hide all tabs e-chords go to top tab

share