Temas Diversos

home > Temas Diversos

Esporte Espetacular Tab

Temas Diversos

Difficulty: nolevelnolevel

by Mentalize

tuner correct add songbook print version text version save to e-mail
chordsukulelecavacokeyboardtabbassdrumsharmonicsflute Guitar Pro
chords

Esporte Espetacular

  			 

  G       D/F#                Em           C             G 
e|-------------------------|---------------10--8---------------|          
B|--15-15-13--12-13-12-10--|--12-12-10-8---------8--10--10/12--| 
G|-------------------------|-----------------------------------| <------ 
D|-------------------------|-----------------------------------|        | 
A|-------------------------|-----------------------------------|        | 
E|-------------------------|-----------------------------------|        | 
                                                                        | 2X 


                 D            Em           C                            | 
e|---------------10/12-----|---------------10/12--10-10--------|        | 
B|--12-12-10-8-------------|--12-12-10-8-----------------------|        | 
G|-------------------------|-----------------------------------|        | 
D|-------------------------|-----------------------------------| <------ 
A|-------------------------|-----------------------------------| 
E|-------------------------|-----------------------------------| 




    G             A            D   G         A            F      D 
e|--------------------------------------------------------------------| 
B|--------------------------------------------------------10-8-7------| 
G|-----------------------------10--------------------------------7----| 
D|---------------------------------7-9-9/12--11-12-14--7--------------| 
A|--8-10--10/13---12-13-15--8-----------------------------------------| 
E|--------------------------------------------------------------------| 
	  

Full key step upFull key step up
Half key step upHalf key step up
Half key step downHalf key step down
Full key step downFull key step down
Search Paypal
auto scroll beats size up size down change color hide chords drawings
tab show chords e-chords YouTube Clip e-chords hide all tabs e-chords go to top tab