Temas de TV

home > Temas de TV

X-men Tab

Temas de TV

Difficulty: nolevelnolevel

by gustsilva

tuner correct add songbook print version text version save to e-mail
chordsukulelecavacokeyboardtabbassdrumsharmonicsflute Guitar Pro
chords

X-men

  		Transcribed by: Otávio França 


Eu num sei se ta certo.Eu nem lembro direito da melodia, mas acho q é isso! 

 
---------------------------------------------------------------------------|-- 
--------6\5-----------------6\5----6---------6\5--------5------------------|-- 
-------------7-------------------7----------------7-------7----------------|-- 
-5/6/7---------7-----5/6/7-------------5/6/7--------7----------------------|-- 
---------------------------------------------------------------------------|-- 
---------------------------------------------------------------------------|-- 
 
                                                                               

 
---------------------------------------------------------------------------|-- 
----------13\12-------------------13\12----13-----------13\12--------12----|-- 
----------------14----------------------14--------------------14--------14-|-- 
-12/13/14----------14-----12/13/14-------------12/13/14----------14--------|-- 
---------------------------------------------------------------------------|-- 
---------------------------------------------------------------------------|-- 
 
                                                                               

-----------|------------|-------------------------|-----------------5--10--|-- 
-----------|------------|-------------------------|-------6\5---6----------|-- 
------(4x)-|-------(4x)-|--------(3x)-------13-12v|-----------7------------|-- 
-8-6-5-----|-10-8-6-----|-11-10-8-----10-11-------|-5/6/7------------------|-- 
-----------|------------|-------------------------|------------------------|-- 
-----------|------------|-------------------------|------------------------|-- 
	  

Search Paypal
auto scroll beats size up size down change color hide chords drawings
tab show chords e-chords YouTube Clip e-chords hide all tabs e-chords go to top tab