Temas de TV

home > Temas de TV

Tom & Jerry Tab

Temas de TV

Difficulty: nolevelnolevel

by gustsilva

tuner correct add songbook print version text version save to e-mail
chordsukulelecavacokeyboardtabbassdrumsharmonicsflute Guitar Pro
chords

Tom & Jerry

  		Eb 


 
D|--------------------------------------------------------------- 
A|----------7-8-7-------------7-8-7---5---7-8-5-7---5---7-8-5-7-- 
E|-5--7-8-5-------8-5---7-8-7-------8---------------------------- 
 



 
D|-7--------------7--------7--------7--------------7--------7------ 
A|----0-0-0-0-0-0--10-8-7---10-8-7-----0-0-0-0-0-0--10-8-7---10-8-7 
E|----------------------------------------------------------------- 
 



 
D|---------------------------------------| 
A|--5-7-8-7---5-7-8-7---5-7-8-7--5-------| 
E|---------------------------------8-7-5-| Volta tudo de novo até você cansar 
 


 Se quiser terminar o ciclo 
  Depois da corrida toque 
 
D|---------------------------------5-6-7---7-| 
A|--5-7-8-7---5-7-8-7---5-7-8-7--7---------7-| 
E|-----------------------------------------5-| 
 




Essa é a famosa musiquinha de quando o Tom tá perseguindo o Jerry. 
Quando voce toca, todo mundo fala : 
"Caramba, eu conheço essa música, mas não lembro de onde é !" 


 
E|-------------------------------------------------------------------------------| 
B|-------------------------------------------------------------------------------| 
G|-------------------------------------------------------------------------------| 
D|-------------------------------------------------------------------------------| 
A|-----5~~---5--3--1--0--5--3--1--0--5~~---5--3--1--0--5--3--1--0----------------| 
E|------------------------------------------------------------------3--5--6--5---| 
 

E|------------------------------------|| 
B|------------------------------------|| 
G|------------------------------------||   Repete infinitas vezes 
D|------------------------------------|| 
A|------------------------------------|| 
E|---3--5--6--5------3--5--6--5--6----|| 
	  

Full key step upFull key step up
Half key step upHalf key step up
Half key step downHalf key step down
Full key step downFull key step down
Search Paypal
auto scroll beats size up size down change color hide chords drawings
tab show chords e-chords YouTube Clip e-chords hide all tabs e-chords go to top tab