Temas de TV

home > Temas de TV

Tintin Tab

Temas de TV

Difficulty: nolevelnolevel

by gustsilva

tuner correct add songbook print version text version save to e-mail
chordsukulelecavacokeyboardtabbassdrumsharmonicsflute Guitar Pro
chords

Tintin

  		Esse desenho marcou a minha infância e essa musica me traz muitas recordações. A tirei de ouvido e tentei chegar o mais proximo possivel do piano original. Espero q gostem !!! 

 
E|-------------------------5--------------------------- 
B|---------------------------6-3-----------5----------- 
G|-----------------5-4-----------2--5-7---------------- 
D|-----------2--5-------------------------------------- 
A|---3-3-3--------------------------------------------- 
E|----------------------------------------------------- 
 

 
E|-8-11-10----------13-11-10--------------------- 
B|----------8-11----------------13-----13-11-9-8- 
G|----------------------------------------------- 
D|----------------------------------------------- 
A|----------------------------------------------- 
E|----------------------------------------------- 
 

 
E|------------------------------------------8-11-14-13-- 
B|-9-----------------------------8-8-11----------------- 
G|---8-10-12-------------------------------------------- 
D|---------------6-------------------------------------- 
A|-----------------6-8-10------------------------------- 
E|------------------------------------------------------ 
 

E|--------------------------------------------------- 
B|-11-7---------------------------------8-11--------- 
G|-------8----7-8-10----------7-8-10----------------- 
D|----------9----------------9----------------------- 
A|--------------------------------------------------- 
E|--------------------------------------------------- 
	  

Search Paypal
auto scroll beats size up size down change color hide chords drawings
tab show chords e-chords YouTube Clip e-chords hide all tabs e-chords go to top tab