Temas de TV

home > Temas de TV

Pantera Pink ... Tab

Temas de TV

Difficulty: nolevelnolevel

by gustsilva

tuner correct add songbook print version text version save to e-mail
chordsukulelecavacokeyboardtabbassdrumsharmonicsflute Guitar Pro
chords

Pantera Pink ...

  		 
e|---------------------|-----------------|-------------------|2 vezes 
B|---------------------|-5-4--------4-3--|-2-----------------| 
G|---------------------|------2--5-------|---5--2-----2------| 
D|--2--4-5---1-2---4-5-|-----------------|---------5---------| 
A|---------------------|-----------------|-------------------| 
E|---------------------|-----------------|-------------------| 
 



 
e|----------------------------|-----------------|-------------------| 
B|-5-3------------------------|-----------------|-------------------| 
G|-----4-2-----3-2-3-2-3-2-3-2|-----------------|-------------------| 
D|---------5-2----------------|-5-2---2---------|-------------------| 
A|----------------------------|-----5-----------|-------------------| 
E|----------------------------|-----------------|-------------------| 
 


Obs: não sei se está completa mas tah oq aparece no desenho ... 
	  

Search Paypal
auto scroll beats size up size down change color hide chords drawings
tab show chords e-chords YouTube Clip e-chords hide all tabs e-chords go to top tab