Temas de TV

home > Temas de TV

Pantera Cor De Rosa Tab

Temas de TV

Difficulty: nolevelnolevel

by gustsilva

tuner correct add songbook print version text version save to e-mail
chordsukulelecavacokeyboardtabbassdrumsharmonicsflute Guitar Pro
chords

Pantera Cor De Rosa

  		(primeira parte) 
 
E|-----------------------------------------| 
B|-----------------------------------------| 
G|-----------------------------------------| 
D|-----------------------------------------| (2x) 
A|---3/4--5/6----6-------------------------| 
E|---3/4--5/6--6---------------------------| 
 

 
E|-----------------------------------------| 
B|-----------------------------------------| 
G|-----------------------------------------| 
D|-----------------------------------------| (2x) 
A|---6/5--4/3--3---------------------------| 
E|---6/5--4/3----3-------------------------| 
 

(segunda parte) 
 
E|--------------------------------------------------------| 
B|--------------------------------------------------------| 
G|--------------------------------------------------------| 
D|--------------------------------------------------------| 
A|----------------------------10-9--------9-8--8-7--------| 
E|---6-7--9-10----6-7--9-10---------7-10------------8-7---| 
 

 
E|--------------------------------------------------------| 
B|--------------------------------------------------------| 
G|--------------------------------------------------------| 
D|--------------------------------------------------------| 
A|----------------------------10-9--------9-8--8/15-------| 
E|---6-7--9-10----6-7--9-10---------7-10------------------| 


 
E|--------------------------------------------------------| 
B|--------------------------------------------------------| 
G|--------------------------------------------------------| 
D|--------------------------------------------------------| 
A|----------------------------10-9--------9-8--8-7--------| 
E|---6-7--9-10----6-7--9-10---------7-10------------8-7---| 
 

 
E|--------------------------------------------------------| 
B|--------------------------------------------------------| 
G|--------------------------------------------------------| 
D|--------------------------------------------------------| 
A|----------------------------10-9--------9-8--8/15-------| 
E|---6-7--9-10----6-7--9-10---------7-10------------------| 
	  

Search Paypal
auto scroll beats size up size down change color hide chords drawings
tab show chords e-chords YouTube Clip e-chords hide all tabs e-chords go to top tab