Temas de TV

home > Temas de TV

Novela Esplendor Tab

Temas de TV

Difficulty: nolevelnolevel

by gustsilva

tuner correct add songbook print version text version save to e-mail
chordsukulelecavacokeyboardtabbassdrumsharmonicsflute Guitar Pro
chords

Novela Esplendor

  		"Rock And Roll Lullaby Theme" - "Novela Esplendor" 


Solo 
 
e|----------|-6-6-6-5-h6-6-6-5-h6-6-|-6---------------|-------------------| 
B|------6-8-|-6-6-6-5-h6-6-6-5-h6-6-|-6-9-8-6---------|-------------------| 
G|-6-h7-----|-----------------------|---------6-7-----|-7-7--7-7-7-7--7-7-| 
D|----------|-----------------------|-------------8-8-|-8-8--8-8-8-8--8-8-| 
A|----------|-----------------------|-----------------|-------------------| 
E|----------|-----------------------|-----------------|-------------------| 
 

 
e|-------------------|----------------------|-6------------------| 
B|---6--8-6----------|-------6------6-------|-6------6-------6---| 
G|-7-7--7-7-7-5--3---|-8-10----8-10----8-10-|---8-10---8-10------| 
D|-----------------5-|----------------------|--------------------| 
A|-------------------|----------------------|--------------------| 
E|-------------------|----------------------|--------------------| 
 

 
e|----------------------|-6------------------|-------6-----------8--6-| 
B|-------6------6-------|-6------6-------6---|----------9--8--6-------| 
G|-8-10----8-10----8-10-|---8-10---8-10------|-8-10-------------------| 
D|----------------------|--------------------|------------------------| 
A|----------------------|--------------------|------------------------| 
E|----------------------|--------------------|------------------------| 
 

 
e|----------------6---|---------6----6--------|-----------------| 
B|-9-8--6---------6-9-|-8-6-----6----6--8-6---|-----------------| 
G|--------8-6-h7--7---|------8^---8^----8-6-h7|-----------------| 
D|--------------------|-----------------------|-8---------------| 
A|--------------------|-----------------------|-----------------| 
E|--------------------|-----------------------|-----------------| 
 

Riff During the Solo: 
 
e|-------------------|-------------------|----------------------|--------------------| 
B|-------------------|-------------------|----------------------|--------------------| 
G|-------------------|-------------------|----------------------|--------------------| 
D|-------------------|-------------------|-8--8-10-8--8-8-10--8-|-8-8-10-8-8--8-10-8-| 
A|-8-8-10-8-8-8-10-8-|-8-8-10-8-8-8-10-8-|-6--6--6-6--6-6--6--6-|-6-6--6-6-6--6--6-6-| 
E|-6-6--6-6-6-6--6-6-|-6-6--6-6-6-6--6-6-|----------------------|--------------------| 
 

 
e|----------------------|--------------------|-------------------------| 
B|----------------------|--------------------|-------------------------| 
G|----------------------|--------------------|-------------------------| 
D|----------------------|--------------------|-10-10-12-10-10-10-12-10-| 
A|-8--8-10-8--8-8-10--8-|-8-8-10-8-8--8-10-8-|--8--8--8--8--8--8--8--8-| 
E|-6--6--6-6--6-6--6--6-|-6-6--6-6-6--6--6-6-|-------------------------| 
 

 
e|--------------------|-----------------------| 
B|--------------------|-----------------------| 
G|--------------------|-----------------------| 
D|-8-8-10-8-8--8-10-8-|-----------------------| 
A|-6-6--6-6-6--6--6-6-|-8-8-10--8-8--8-10-8-8-| 
E|--------------------|-6-6--6--6-6--6--6-6-6-| 
 

Tabbed by Gules 
	  

Search Paypal
auto scroll beats size up size down change color hide chords drawings
tab show chords e-chords YouTube Clip e-chords hide all tabs e-chords go to top tab