Temas de TV

home > Temas de TV

Monk Tab

Temas de TV

Difficulty: nolevelnolevel

by gustsilva

tuner correct add songbook print version text version save to e-mail
chordsukulelecavacokeyboardtabbassdrumsharmonicsflute Guitar Pro
chords

Monk

  		 
e|-2-23345-20-0----22--2-23345-20-0----5--2-23357-320--8\7-2/3-3--| 
B|-----------3--323--------------3--323--------------4------------| 
G|----------------------------------------------------------------| 
D|----------------------------------------------------------------| 
A|----------------------------------------------------------------| 
E|----------------------------------------------------------------| 
 

 
e|-235-2---2---2---957---5---------------------------------------- 
B|------353-353-3-----875-----------------------------------------| 
G|----------------------------------------------------------------| 
D|----------------------------------------------------------------| 
A|----------------------------------------------------------------| 
E|----------------------------------------------------------------| 
 

 
e|-2345-20-0----22--2-2345-20-0----5--2-2357-767-12-10-9-755------| 
B|--------3--323-------------3--323-------------------------------| 
D|----------------------------------------------------------------| 
A|----------------------------------------------------------------| 
E|----------------------------------------------------------------| 
 

 
e|-235-2---2---2---957---5----------------------------------------| 
B|------353-353-3-----875-----------------------------------------| 
G|----------------------------------------------------------------| 
D|----------------------------------------------------------------| 
A|----------------------------------------------------------------| 
E|----------------------------------------------------------------| 
 

e|-2345-20-0----22--2-2335-2---2----------------------------------| 
B|--------3--323------------353-353-7\--3-------------------------| 
D|-------------------------------------2--------------------------| 
A|----------------------------------------------------------------| 
E|----------------------------------------------------------------| 
	  

Search Paypal
auto scroll beats size up size down change color hide chords drawings
tab show chords e-chords YouTube Clip e-chords hide all tabs e-chords go to top tab