Temas de TV

home > Temas de TV

Luluzinha Tab

Temas de TV

Difficulty: nolevelnolevel

by gustsilva

tuner correct add songbook print version text version save to e-mail
chordsukulelecavacokeyboardtabbassdrumsharmonicsflute Guitar Pro
chords

Luluzinha

  		Luluzinha, Luluzinhaaa... 
 
E|------0-----2-2-------------0-------2-2-0-0---------- 
B|-----0-----0---4-2--0-2----0-----0-0----------------- 
G|-2-2---2-2---------2----2-2---2-2-------------------- 
D|----------------------------------------------------- 
A|----------------------------------------------------- 
E|----------------------------------------------------- 
 

 
E|-0-0-----0-0-----0--33--2-2---2-2------2------3-3-2-3 
B|-----3-3-----3-3---3--------4-4---4-5-6--5-4--------- 
G|----------------------------------------------------- 
D|----------------------------------------------------- 
A|----------------------------------------------------- 
E|----------------------------------------------------- 
 

(repete 2x) 
	  

Search Paypal
auto scroll beats size up size down change color hide chords drawings
tab show chords e-chords YouTube Clip e-chords hide all tabs e-chords go to top tab