Temas de TV

home > Temas de TV

Harry Potter Tab

Temas de TV

Difficulty: nolevelnolevel

by gustsilva

tuner correct add songbook print version text version save to e-mail
chordsukulelecavacokeyboardtabbassdrumsharmonicsflute Guitar Pro
chords

Harry Potter

  		 
E|---0-3-2-0---7-5-2---0-3-2----------------| 
B|----------------------------3-7-----------| 
G|---------------------------------4--------| 
D|------------------------------------------| 
A|------------------------------------------| 
E|------------------------------------------| 
 

 
E|---0-3-2-0-7-10-9-8---5-7-3-0---3-0-------| 
B|-0----------------------------1-----------| 
G|------------------------------------------| 
D|------------------------------------------| 
A|------------------------------------------| 
E|------------------------------------------| 
 

 
E|---7--7--8-7-6---5-7-3-0---3-0------------| 
B|-8--8--8-----------------1----------------| 
G|------------------------------------------| 
D|------------------------------------------| 
A|------------------------------------------| 
E|------------------------------------------| 
 

 
E|---7--7---10-9-8---5-7-3-0---3-0----------| 
B|-8--8--8-------------------1--------------| 
G|------------------------------------------| 
D|------------------------------------------| 
A|------------------------------------------| 
E|------------------------------------------| 
	  

Search Paypal
auto scroll beats size up size down change color hide chords drawings
tab show chords e-chords YouTube Clip e-chords hide all tabs e-chords go to top tab