Temas de Filmes

home > Temas de Filmes

titanic (completa) Tab

Temas de Filmes

Difficulty: BeginnerBeginner

by victor%2Eh

tuner correct add songbook print version text version save to e-mail
chordsukulelecavacokeyboardtabbassdrumsharmonicsflute Guitar Pro
chords

titanic (completa)

	  intro 
-------4---4h5p4-----------5-4---0------------ 
-5--7--5--------7-5-7--7---------2--0h2p0----- 
-------4---------------8---------2---------4-- 
-----------------------9---------2---------4-- 
-------4-------------------------0---------2-- 
---------------------------------------------- 
 
-------4---4h5p4-----------4--7--09--0--2------ 
-5--7--5--------7-5-7--7---------10-----4------ 
-------4---------------8---------09-----4------ 
-----------------------9----------------4------ 
-------4--------------------------------2------ 
----------------------------------------------- 
verso 
 
-0--0-0--0--0---0-0---0-4--2--0--0-0--0---0--0------0--2-- 
-0--0-0--0-4-----4------4--4--0--0-0--0--4----0h2---2--4-- 
-1--1-1--1-4-----4---------4--1--1-1--1--4----------2--4-- 
----------------------------------------------------2--4-- 
-----------2-----0------2----------------2----0-----0--2-- 
-0----------------------------0--------------------------- 
(2x) 
 
-0--0--2----7--5-4--2--4-5--4--2-0---0--0----------- 
-5-----4--0-5-------4-------5-------4----0h2--2-0--- 
-0-----4------------4-------4-------4-------------2- 
-------4------------4------------------------------- 
-4-----2------------2-------4-------2----0----0----- 
------------------------------------------------3-2- 
 
-0--0--2----7--5-4--2--4-5--4--2-0---0--0-0---0--- 
-5-----4--0-5-------4-------5-------4----4----0--- 
-0-----4------------4-------4-------4----4----1--- 
-------4------------4-------------------------2--- 
-4-----2------------2-------4-------2----0----2--- 
----------------------------------------------0--- 
 
 

	  

there isn't a video lesson for this song

request
Search
auto scroll beats size up size down change color hide chords drawings
tab show chords e-chords YouTube Clip e-chords hide all tabs e-chords go to top tab