Temas de Filmes

home > Temas de Filmes

Tema do filme 007 Tab

Temas de Filmes

Difficulty: BeginnerBeginner

tuner correct add songbook print version text version save to e-mail
chordsukulelecavacokeyboardtabbassdrumsharmonicsflute Guitar Pro
chords

Tema do filme 007

	  James Bond - Trilha sonora 
  
    e |-------------------------------------------------------| 
    b |-------------------------------------------------------| 
    g |-------------------------------------------------------|  
    d |-------------------------------------------------------| 
    a |-------------------------------------------------------| 
    e |--0--22--22--000--33--33--222-------------------------|X2 
  
                             
  
    e |-------------------------------------------------------|  
    b |-------------------------------------------------------| 
    g |-------------------------------------------------------| 
    d |-------------------------------------------------------| 
    a |-------------------------------------------------------| 
    e |--0--22--22--000--33--33--2-0--------------------------| 
  
 
 
    e |-------------------------------------------------------|  
    b |-------------------------------------------------------| 
    g |-------------------------------------------------------| 
    d |-------------------------------------------------------| 
    a |--6-5-----0-7------------------------------------------| 
    e |--------7----------------------------------------------| 

	  

Search Paypal
auto scroll beats size up size down change color hide chords drawings
tab show chords e-chords YouTube Clip e-chords hide all tabs e-chords go to top tab