Temas de Filmes

home > Temas de Filmes

Tema da Feiticeira Tab

Temas de Filmes

Difficulty: EasyEasy

by diego%5Fpej

tuner correct add songbook print version text version save to e-mail
chordsukulelecavacokeyboardtabbassdrumsharmonicsflute Guitar Pro
chords

Tema da Feiticeira

	  A música é feita por esse Riff base:  
 
E|----------------------------------| 
B|--2-1-2-3--2-------2-1-2-3--2-----| 
G|-------------2----------------1---| 
D|----------------------------------| 
A|----------------------------------| 
E|----------------------------------| 
 
 
 
E|---------0-----------------------------| 
B|--2--1-2-----2-1-2-2/4-2--------1------| 
G|--------------------------2--2----2-1--| 
D|---------------------------------------| 
A|---------------------------------------| 
E|---------------------------------------| 
 

	  

Search Paypal
auto scroll beats size up size down change color hide chords drawings
tab show chords e-chords YouTube Clip e-chords hide all tabs e-chords go to top tab