Temas de Filmes

home > Temas de Filmes

Star Wars Theme Tab

Temas de Filmes

Difficulty: ExpertExpert

by Cz4r

tuner correct add songbook print version text version save to e-mail
chordsukulelecavacokeyboardtabbassdrumsharmonicsflute Guitar Pro
chords

Star Wars Theme

	  Star Wars 
Temas de Filmes 
 
 
E|---------------------------------!------------------- 
B|--------------------------11-----!----------11------- 
G|-------------10----8-7-8-----10~~!---8-7-8------10~~- 
D|----------8------8---------------!-8----------------- 
A|---8-8-8-------------------------!------------------- 
E|---------------------------------!------------------- 
 
E|------------------------------------- 
B|------------------------------------- 
G|-------8-7-8------------------------- 
D|----8----------10~~~~---------------- 
A|------------------------------------- 
E|------------------------------------- 

	  

Search Paypal
auto scroll beats size up size down change color hide chords drawings
tab show chords e-chords YouTube Clip e-chords hide all tabs e-chords go to top tab