Temas de Filmes

home > Temas de Filmes

Medieval Tab

Temas de Filmes

Difficulty: AdvancedAdvanced

by tomate91

tuner correct add songbook print version text version save to e-mail
chordsukulelecavacokeyboardtabbassdrumsharmonicsflute Guitar Pro
chords

Medieval

	  To colocando uma musiquinha que eu ouvi em algum filme medieval...
Acho que vocês devem conhecer! 

E|-------------------------------------------------| 
B|-------------------------------------------------| 
G|-------------------------------------------------| 
D|--------0-2--3-2-0-------------------------------| 
A|---0-3--------------2----0-2-3-2-0-0---0-2-------| 
E|----------------------3--------------4-----4-0---| 

E|-------------------------------------------------| 
B|-------------------------------------------------| 
G|-------------------------------------------------| 
D|--------0-2--3-2-0-------------------------------| 
A|---0-3--------------2----0-2-3-2-0-------0-------| 
E|----------------------3------------4-2-4---------| 

	  

there isn't a video lesson for this song

request
Search Paypal
auto scroll beats size up size down change color hide chords drawings
tab show chords e-chords YouTube Clip e-chords hide all tabs e-chords go to top tab