Temas de Filmes

home > Temas de Filmes

Matrix Tab

Temas de Filmes

Difficulty: EasyEasy

tuner correct add songbook print version text version save to e-mail
chordsukulelecavacokeyboardtabbassdrumsharmonicsflute Guitar Pro
chords

Matrix

	  Tablatura escrita por Bleed  
 
 
                   MARALYN MANSON 
                   ROCK IS DEAD  ( ultimo cd ou trilha do matrix ) 
 
intro:  
 
|--------------------------| 
|--------------------------| 
|--------------------------| 
|-4-4-x-4-4-x-4-4-x-4-4-7--| 
|-4-4-x-4-4-x-4-4-x-4-4-7--| 
|-2-2-x-2-2-x-2-2-x-2-2-5--| 
 
base: ( baixo ) 
 
|----------------------------------| 
|----------------------------------| 
|---------------------------9-7----| 
|-2-2-2-2-2-2-2-5-2-2-2-2-2-----9--| 
 
Guitarra entra no pré-chorus 
 
|----------------| 
|----------------| 
|----------------| 
|-7-----10-----12| 
|-7-----10-----12| 
|-5-----8------10| 
 
 
Refrão:  
 
|----------------|    
|----------------| 
|-11--9--11/ 9---| 
|-11--9--11/ 9---|    2x 
|-9---7--9 / 7---| 
|----------------| 
 
|----------------| 
|----------------| 
|-9-7--9/-7------| 
|-9-7--9/-7------|   2x 
|-7-5--7/-5------| 
|----------------| 
 
|----------------| 
|----------------| 
|-7--6--7/-6-----| 
|-7--6--7/-6-----|    2x 
|-5--4--5/-4-----| 
|----------------| 
 
final  |---------| 
       |---------| 
       |-666-999-| 
       |-666-999-| 
       |-444-777-| 
       |---------| 
 
solinhude teclado e volta na introduçao 
depois de introdução repete a base no baixo...depois a guitarra  
pré-refrão, o refrão e finaliza em F#5 
 
by bleed... 
	  

there isn't a video lesson for this song

request
Full key step upFull key step up
Half key step upHalf key step up
Half key step downHalf key step down
Full key step downFull key step down
Search Paypal
auto scroll beats size up size down change color hide chords drawings
tab show chords e-chords YouTube Clip e-chords hide all tabs e-chords go to top tab