Temas de Filmes

home > Temas de Filmes

Jurassic Park Tab

Temas de Filmes

Difficulty: ExpertExpert

tuner correct add songbook print version text version save to e-mail
chordsukulelecavacokeyboardtabbassdrumsharmonicsflute Guitar Pro
chords

Jurassic Park

	   
Intro: 
 
e|----6-5-6---------6-5-6---------6-5-6--8-8----------------| 
B|------------6--4----------6--4----------------------------| 
G|----------------------------------------------------------| 
A|----------------------------------------------------------| 
D|----------------------------------------------------------| 
E|----------------------------------------------------------| 
 
 
Riff: 
 
e|----------------------------------------------------------| 
B|-----8-----10-12-13-13-12----10---13--12---10-12b13-------| 
G|--5----7------------------12-------------12------------5--| 
D|----------------------------------------------------------| 
A|----------------------------------------------------------| 
E|----------------------------------------------------------|  

	  

there isn't a video lesson for this song

request
Search Paypal
auto scroll beats size up size down change color hide chords drawings
tab show chords e-chords YouTube Clip e-chords hide all tabs e-chords go to top tab