Temas de Filmes

home > Temas de Filmes

Harry Potter Theme Tab

Temas de Filmes

Difficulty: BeginnerBeginner

by amy3971

tuner correct add songbook print version text version save to e-mail
chordsukulelecavacokeyboardtabbassdrumsharmonicsflute Guitar Pro
chords

Harry Potter Theme

	  This is the theme music for Harry Potter that comes on in the  
starting credits and also when ever the owl(s) come in. 
 
e|--0--3--2--0--7--5--2--0--3--2--1- 
B|0-----------------------------3--0 
G|----------------------------------}x1 
D|---------------------------------- 
A|---------------------------------- 
E|---------------------------------- 
 
 
e|--0--3--2--0--7--10--9--8--5--8--7--6--3--0 
B|0-------------------------------------0---- 
G|-------------------------------------------}x1 
D|------------------------------------------- 
A|------------------------------------------- 
E|------------------------------------------- 
 
thats the end. you can play it as many times as you like 
because it goes round and round, it is good for beginners 
and a nice party peice for more experienced players too. 

	  

there isn't a video lesson for this song

request
Search Paypal
auto scroll beats size up size down change color hide chords drawings
tab show chords e-chords YouTube Clip e-chords hide all tabs e-chords go to top tab