Temas de Filmes

home > Temas de Filmes

Filme Tab

Temas de Filmes

Difficulty: BeginnerBeginner

by %2DxXx%2D

tuner correct add songbook print version text version save to e-mail
chordsukulelecavacokeyboardtabbassdrumsharmonicsflute Guitar Pro
chords

Filme

	  e-----------------------------------------------------------------| 
B--5-7/9--9-9/10-9-7-5-7/12---10-9--5-2--0---0--------------------| 
G------------------------------------------2----------------------| 
D-----------------------------------------------------------------| 
A-----------------------------------------------------------------| 
E-----------------------------------------------------------------| 
 
e-----------------------------------------------------------------| 
B--5-7/9--9-9/10-9-7-5-7-7/12---9-12-12/14-12--7------------------| 
G-----------------------------------------------------------------| 
D-----------------------------------------------------------------| 
A-----------------------------------------------------------------| 
E-----------------------------------------------------------------| 
 
 
Refrão	 
 
 
e----------------------------------------------------------------| 
B--5-7-0-12-10-9-7--9-9/10-9-7-5-4-5-4-2-0-----------------------| 
G----------------------------------------------------------------| 
D----------------------------------------------------------------| 
A----------------------------------------------------------------| 
E----------------------------------------------------------------| 
 
e----------------------------------------------------------------| 
B--5-7-0-12-10-9-7--9-9/10-9-7-5-4-5--5-4-5--5-4-5--7-7/9-7-5----| 
G----------------------------------------------------------------| 
D----------------------------------------------------------------| 
A----------------------------------------------------------------| 
E----------------------------------------------------------------| 
 
 
Melodia 
 
                                      
e--------------------------------------|----------------------------| 
B--5--5-5--5-4-5-5-5-5-4-5-5-5-7-7/9-7-|-5--5-5--5-4-5-5-5-5/7-0----| 
G--------------------------------------|----------------------------| 
D--------------------------------------|----------------------------| 
A--------------------------------------|----------------------------| 
E--------------------------------------|----------------------------| 
 

	  

Search Paypal
auto scroll beats size up size down change color hide chords drawings
tab show chords e-chords YouTube Clip e-chords hide all tabs e-chords go to top tab