Temas de Filmes

home > Temas de Filmes

Doug Tab

Temas de Filmes

Difficulty: EasyEasy

by felipemontero

tuner correct add songbook print version text version save to e-mail
chordsukulelecavacokeyboardtabbassdrumsharmonicsflute Guitar Pro
chords

Doug

	  E ----------------------------------------- 
B --0--------------------0----------------- 
G ----2-0-----------0--2------------------- 
D --------2-0-2-0-2------------------------ 
A ----------------------------------------- 
E ----------------------------------------- 

E ----------------------------------------- 
B --0-------------------------------------- 
G ----2-0-----------0--2-0----------------- 
D --------2-0-2-0-2------------------------ 
A ----------------------------------------- 
E ----------------------------------------- 

E ----------------------------------------- 
B --0--------------------0----------------- 
G ----2-0-----------0--2------------------- 
D --------2-0-2-0-2------------------------ 
A ----------------------------------------- 
E ----------------------------------------- 

E ----------------------------------------- 
B --0-------------------------------------- 
G ----2-0-----------0--2-0----------------- 
D --------2-0-2-0-2------------------------ 
A ----------------------------------------- 
E ----------------------------------------- 

E --------------------------------------- 
B --8-x-8-------------------------------- 
G --7-x-7-------------------------------- 
D --5-x-5-------5---7b8r7-5-------------- 
A ----------5-7---7---------7------------ 
E --------------------------------------- 

E --------------------------------------- 
B --8-x-8-------------------------------- 
G --7-x-7-------------------------------- 
D --5-x-5-------5------------------------ 
A ----------5-7---7---------------------- 
E ------------------5b6r5-3-------------- 

2ª Parte: 

E ----------------------------------------- 
B ----------------------------------------- 
G --5--------------------5----------------- 
D ----8-6-----------6--8------------------- 
A --------8-6-8-6-8------------------------ 
E ----------------------------------------- 

E ----------------------------------------- 
B ----------------------------------------- 
G --5-------------------------------------- 
D ----8-6-----------6--8-6----------------- 
A --------8-6-8-6-8------------------------ 
E ----------------------------------------- 

E ----------------------------------------- 
B ----------------------------------------- 
G --8-8-8-8--8-8-10r8--8------------------- 
D -------------------10--10---------------- 
A ----------------------------------------- 
E ----------------------------------------- 

E ----------------------------------------- 
B ----------------------------------------- 
G --8-8-8-8--8-8--------------------------- 
D ---------------10-8-10------------------- 
A ----------------------------------------- 
E ----------------------------------------- 

E ----------------------------------------- 
B ----------------------------------------- 
G --8-8-8-8--8-8-10r8--8------------------- 
D -------------------10--10---------------- 
A ----------------------------------------- 
E ----------------------------------------- 

E ----------------------------------------- 
B ------------------8-9-------------------- 
G --8-8-8-8--8-8-10------------------------ 
D ----------------------------------------- 
A ----------------------------------------- 
E ----------------------------------------- 
	  

Search Paypal
auto scroll beats size up size down change color hide chords drawings
tab show chords e-chords YouTube Clip e-chords hide all tabs e-chords go to top tab