Temas de Filmes

home > Temas de Filmes

Bob Esponja Tab

Temas de Filmes

Difficulty: BeginnerBeginner

by fariasMT

tuner correct add songbook print version text version save to e-mail
chordsukulelecavacokeyboardtabbassdrumsharmonicsflute Guitar Pro
chords

Bob Esponja

	  Tema 
Bob Esponja (Spongebob Squarepants) 

Tom: D 
		 
BASE 


E |----------------------------| 
B |------9-----9------9-----9--| 
G |------9-----9------9-----9--|Até o FINAL 
D |---------9------------9-----| 
A |---7-----------77-----------| 
E |----------------------------| 


aquele solinho 


E |---7-6-7-9-7-9-7| 
B |----------------| 
G |----------------|4x 
D |----------------| 
A |----------------| 
E |----------------| 



E |---12--15-14-15-14-15-12--12--| 
B |---12---------------------12--| 
G |------------------------------|4x 
D |------------------------------| 
A |------------------------------| 
E |------------------------------| 


Repete o primeiro solinho e depois faça: 


E |---12-14-15-15-15s0-----| 
B |------------------------| 
G |------------------------| 
D |------------------------| 
A |------------------------| 
E |------------------------| 



E |---7-6-7-9-7-9-7| 
B |----------------| 
G |----------------|2x 
D |----------------| 
A |----------------| 
E |----------------| 



E |---11-12b-------| 
B |----------------| 
G |----------------| 
D |----------------| 
A |----------------| 
E |----------------| 

[email protected] 

	  

there isn't a video lesson for this song

request
Full key step upFull key step up
Half key step upHalf key step up
Half key step downHalf key step down
Full key step downFull key step down
Search
auto scroll beats size up size down change color hide chords drawings
tab show chords e-chords YouTube Clip e-chords hide all tabs e-chords go to top tab