Temas de Filmes

home > Temas de Filmes

007 - James bond theme Tab

Temas de Filmes

Difficulty: BeginnerBeginner

by Jonh+Petrucci

tuner correct add songbook print version text version save to e-mail
chordsukulelecavacokeyboardtabbassdrumsharmonicsflute Guitar Pro
chords

007 - James bond theme

	  Gtr I (E A D G B E) - 'Main Riff - clean electric' 
Gtr II (E A D G B E) - 'Lead - Dist electric' 
Gtr III (E A D G B E) - 'Horns' 
 
 Q=140(8=s8) 
 4/4 
  Gtr III 
   e  e E  E  +Q    e  e   E  Q.    s  e  s  e  e     H    H      H    H 
|------------------------|------------------------||------------|-----------|| 
|-12-12---12-(12)--12-12-|---12----12-12-12-12-12-||o-----------|----------o|| 
|-11--9------------11--9-|---------11-11-11-11--9-||--4----5----|-6----5----|| 
|----------9--(9)--------|----9-------------------||--5----5----|-5----5----|| 
|------------------------|------------------------||o-7----7----|-7----7---o|| 
|------------------------|------------------------||------------|-----------|| 
 
 
                         1.,2. 
    $ 
    Gtr I 
    E S S E E +E  E E E   E S S E E +E  E E E 
||----------------------|----------------------|| 
||o---------------------|---------------------o|| 
||----------------------|----------------------|| 
||----------------------|----------------------|| 
||o---------------------|---------------------o|| 
||--0-2-2-2-2-(2)-0-0-0-|-0-3-3-3-3-(3)-2-2-2--|| 
 
 
  3. 
                                                 D.S. 
  E S S E E +E  E E E   E E +Q   +Q   E E   W 
|---------------------|-------------------|------------|| 
|---------------------|-------------------|------------|| 
|---------------------|-------------------|------------|| 
|---------------------|-1-0-(0)--(0)------|------------|| 
|---------------------|---------------2-0-|-2----------|| 
|-0-3-3-3-3-(3)-2-1-0-|-------------------|------------|| 
 
 
                                     1. 
    $$ 
    Gtr II 
    E E E  E  Q.   E   E E +H.        E S S Q  +E  E E E   +H.      Q 
||--------11-10------|-6-7-(7)------|--------------------|--------------|| 
||o---8------------8-|--------------|-8h9p8p7--(7)---5---|-------------o|| 
||--9----------------|--------------|--------------4---6-|-(6)----------|| 
||-------------------|--------------|--------------------|--------------|| 
||o------------------|--------------|--------------------|-------------o|| 
||-------------------|--------------|--------------------|--------------|| 
 
 
  2. 
                              D.S.S. 
                                     G 
  E S S  Q   +E  E E E   +H.      Q 
|----------------------|-------------| 
|-8h9p8----------------|-------------| 
|-------11--(11)---8-9-|-(9)---------| 
|----------------9-----|-------------| 
|----------------------|-------------| 
|----------------------|-------------| 
 
 
 tr III 
     E  E E  E  E  E  E E    E  E E  E  E  E  E E 
||--12-12---12-14-12-14---|-15-15---15-14-12-14----|| 
||o-----------------------|-----------------------o|| 
||---9--9----9-11--9-11---|-12-12---12-11--9-11----|| 
||------------------------|------------------------|| 
||o-----------------------|-----------------------o|| 
||------------------------|------------------------|| 
 
 
                          6/4                           4/4 
                                                       Gtr I 
   e  e E  E  +Q    e  e   E  Q.    s  e  s  e  e H        W 
|-14-12------------14-12-|---------14-14-14-14-12------|--------*| 
|---------12-(12)--------|---12------------------------|-^-7----*| 
|------------------------|-----------------------------|-^-8----*| 
|------------------------|-----------------------------|-^-9----*| 
|------------------------|-----------------------------|-^10----*| 
|------------------------|-----------------------------|-^-0----*| 

	  

there isn't a video lesson for this song

request
Full key step upFull key step up
Half key step upHalf key step up
Half key step downHalf key step down
Full key step downFull key step down
Search Paypal
auto scroll beats size up size down change color hide chords drawings
tab show chords e-chords YouTube Clip e-chords hide all tabs e-chords go to top tab