Telephone

Flipper

Telephone

tabs

by  ABELAMIN

save to print version add songbook text version e-mail correct tuner
chordsukulelecavacokeyboardtabbassdrumsharmonicaflute Guitar Pro
close

there isn't a video lesson for this song

chords

Flipper

	  		Intro 

e|x-x-x--x-------|x-x-x--x-------|x-x-x--x---x---|x-x-x--x---x---|x-x-x--x---x---|x-x-x--x---x---| 
B|x-x-x--x-------|x-x-x--x-------|x-x-x--x---x---|x-x-x--x---x---|x-x-x--x---x---|x-x-x--x---x---| 
G|x-x-x--x-------|x-x-x--x-------|x-x-x--x---9---|x-x-x--x---9---|x-x-x--x---9---|x-x-x--x---9---| 
D|9-9-9--9-------|9-9-9--9-------|9-9-9--9---9---|9-9-9--9---9---|9-9-9--9---9---|9-9-9--9---9---| 
A|9-9-9--9-------|9-9-9--9-------|9-9-9--9---7---|9-9-9--9---7---|9-9-9--9---7---|9-9-9--9---7---| 
E|7-7-10-7-------|7-7-10-7-------|7-7-10-7---x---|7-7-10-7---x---|7-7-10-7---x---|7-7-10-7---x---| 

verse 1 

e|x-x-x--x---x---|x-x-x--x---x---|x-x-x--x---x---|x-x-x--x---x---|x-x-x--x---x---|x-x-x--x---x---| 
B|x-x-x--x---x---|x-x-x--x---x---|x-x-x--x---x---|x-x-x--x---x---|x-x-x--x---x---|x-x-x--x---x---| 
G|x-x-x--x---9---|x-x-x--x---9---|x-x-x--x---9---|x-x-x--x---9---|x-x-x--x---9---|x-x-x--x---9---| 
D|9-9-9--9---9---|9-9-9--9---9---|9-9-9--9---9---|9-9-9--9---9---|9-9-9--9---9---|9-9-9--9---9---| 
A|9-9-9--9---7---|9-9-9--9---7---|9-9-9--9---7---|9-9-9--9---7---|9-9-9--9---7---|9-9-9--9---7---| 
E|7-7-10-7---x---|7-7-10-7---x---|7-7-10-7---x---|7-7-10-7---x---|7-7-10-7---x---|7-7-10-7---x---| 

  On te donne trois balles 
                                   on te donne trois balles 
                                                                   On te donne trois balles, 
                                                                                  la première t'es un môme 

e|x-x-x--x---x---|x-x-x--x---x---|x-x-x--x---x---|x-x-x--x---x---|x-x-x--x---x---|x-x-x--x---x---| 
B|x-x-x--x---x---|x-x-x--x---x---|x-x-x--x---x---|x-x-x--x---x---|x-x-x--x---x---|x-x-x--x---x---| 
G|x-x-x--x---9---|x-x-x--x---9---|x-x-x--x---9---|x-x-x--x---9---|x-x-x--x---9---|x-x-x--x---9---| 
D|9-9-9--9---9---|9-9-9--9---9---|9-9-9--9---9---|9-9-9--9---9---|9-9-9--9---9---|9-9-9--9---9---| 
A|9-9-9--9---7---|9-9-9--9---7---|9-9-9--9---7---|9-9-9--9---7---|9-9-9--9---7---|9-9-9--9---7---| 
E|7-7-10-7---x---|7-7-10-7---x---|7-7-10-7---x---|7-7-10-7---x---|7-7-10-7---x---|7-7-10-7---x---| 

                                  Tu prends la cadence, 
                                                  tu entres dans la danse 

e|x-x-x--x---x---|x-x-x--x---x---|x-x-x--x---x---|x-x-x--x---x---| 
B|x-x-x--x---x---|x-x-x--x---x---|x-x-x--x---x---|x-x-x--x---x---| 
G|x-x-x--x---9---|x-x-x--x---9---|x-x-x--x---9---|x-x-x--x---9---| 
D|9-9-9--9---9---|9-9-9--9---9---|9-9-9--9---9---|9-9-9--9---9---| 
A|9-9-9--9---7---|9-9-9--9---7---|9-9-9--9---7---|9-9-9--9---7---| 
E|7-7-10-7---x---|7-7-10-7---x---|7-7-10-7---x---|7-7-10-7---x---| 

  Dans la violence des chocs, 
                  tu comprends ta chance,                     Dis Moi 

e|x-x-x--x---x---|x-x-x--x---x---|x-x-x--x---x---|x-x-x--x---x---| 
B|x-x-x--x---x---|x-x-x--x---x---|x-x-x--x---x---|x-x-x--x---x---| 
G|x-x-x--x---9---|x-x-x--x---9---|x-x-x--x---9---|x-x-x--x---9---| 
D|9-9-9--9---9---|9-9-9--9---9---|9-9-9--9---9---|9-9-9--9---9---| 
A|9-9-9--9---7---|9-9-9--9---7---|9-9-9--9---7---|9-9-9--9---7---| 
E|7-7-10-7---x---|7-7-10-7---x---|7-7-10-7---x---|7-7-10-7---x---| 

  Tu sais maintenant comment, 
                  tu sais maintenant comment 
                                  Tu sais maintenant comment, 
                                                  ton histoire commence 

Chorus 

e|x-x---x-x---x-x-x-x------x-x---x-x---x-x-x----| 
B|x-x---x-x---x-x-x-x------x-x---x-x---x-x-x----| 
G|x-x---x-x---x-7-9-7------x-x---7-7---x-x-x----| 
D|5-5---7-7---9-7-9-7------5-5---7-7---9-9-9----| 
A|5-5---7-7---9-7-7-7------5-5---5-5---9-9-9----| 
E|3-3---5-5---7-x-x-x------3-3---x-x---7-7-7----| 

  On joue sa vie comme on joue au flipper 
                           Déjà tout môme on flippe de bumper en bumper 

e|x-x---x-x---x-x-x-x------x-x---x-x---x-x-x----| 
B|x-x---x-x---x-x-x-x------x-x---x-x---x-x-x----| 
G|x-x---x-x---x-7-9-7------x-x---7-7---9-9-x----| 
D|5-5---7-7---9-7-9-7------5-5---7-7---9-9-9----| 
A|5-5---7-7---9-7-7-7------5-5---5-5---7-7-9----| 
E|3-3---5-5---7-x-x-x------3-3---x-x---x-x-7----| 

  On gagne on perd, et toujours on espère 
                            Pouvoir s'en refaire une petite 

e|x-x-x--x---x---|x-x-x--x---x---|x-x-x--x---x---|x-x-x--x---x---| 
B|x-x-x--x---x---|x-x-x--x---x---|x-x-x--x---x---|x-x-x--x---x---| 
G|x-x-x--x---9---|x-x-x--x---9---|x-x-x--x---9---|x-x-x--x---9---| 
D|9-9-9--9---9---|9-9-9--9---9---|9-9-9--9---9---|9-9-9--9---9---| 
A|9-9-9--9---7---|9-9-9--9---7---|9-9-9--9---7---|9-9-9--9---7---| 
E|7-7-10-7---x---|7-7-10-7---x---|7-7-10-7---x---|7-7-10-7---x---| 

 Gratuite,        gratuite,       gratuite,       gratuite 


verse 2 
On te donne trois balles, on te donne trois balles 
On te donne trois balles, la deuxième t'es un grand 
Il faut te démerder, tu commences a ruser, hein? 
Tu cherche un abri et quand tu l'as trouve 
Tu te vois éjecter, à vitesse grand V 
Vers le bumper d'en face, qui t'attend dans l'impasse 
Vers le bumper d'en face, qui t'attend dans l'impasse 

Chorus 

e|x-x---x-x---x-x-x-x------x-x---x-x---x-x-x----| 
B|x-x---x-x---x-x-x-x------x-x---x-x---x-x-x----| 
G|x-x---x-x---x-7-9-7------x-x---7-7---x-x-x----| 
D|5-5---7-7---9-7-9-7------5-5---7-7---9-9-9----| 
A|5-5---7-7---9-7-7-7------5-5---5-5---9-9-9----| 
E|3-3---5-5---7-x-x-x------3-3---x-x---7-7-7----| 

  On joue sa vie comme on joue au flipper 
                           Déjà tout môme on flippe de bumper en bumper 

e|x-x---x-x---x-x-x-x------x-x---x-x---x-x-x----| 
B|x-x---x-x---x-x-x-x------x-x---x-x---x-x-x----| 
G|x-x---x-x---x-7-9-7------x-x---7-7---x-x-x----| 
D|5-5---7-7---9-7-9-7------5-5---7-7---9-9-9----| 
A|5-5---7-7---9-7-7-7------5-5---5-5---9-9-9----| 
E|3-3---5-5---7-x-x-x------3-3---x-x---7-7-7----| 

  On gagne on perd, et toujours on espère 
                           Pouvoir s'en refaire une petite 

e|x-x-x--x---x---|x-x-x--x---x---|x-x-x--x---x---|x-x-x--x---x---| 
B|x-x-x--x---x---|x-x-x--x---x---|x-x-x--x---x---|x-x-x--x---x---| 
G|x-x-x--x---9---|x-x-x--x---9---|x-x-x--x---9---|x-x-x--x---9---| 
D|9-9-9--9---9---|9-9-9--9---9---|9-9-9--9---9---|9-9-9--9---9---| 
A|9-9-9--9---7---|9-9-9--9---7---|9-9-9--9---7---|9-9-9--9---7---| 
E|7-7-10-7---x---|7-7-10-7---x---|7-7-10-7---x---|7-7-10-7---x---| 

  Gratuite,       gratuite,       gratuite,       gratuite 

Break 
e|---------------|---------------|---------------|---------------|---------------|---------------| 
B|---------------|---------------|---------------|---------------|---------------|---------------| 
G|---------------|---------------|---------------|---------------|---------------|---------------| 
D|--5-----5------|--5-----5------|--5-----5------|--5-----5------|--5-----5------|--5-----5------| 
A|-5-----5-------|-5-----5-------|-5-----5-------|-5-----5-------|-5-----5-------|-5-----5-------| 
E|3--6--3--------|3--6--3--------|3--6--3--------|3--6--3--------|3--6--3--6-----|3--6--3--------| 
                           Attention au tilt 
                                                       Attention au tilt, t'as perdu la boule mon gars, Non! 

guitar solo 

e|x-x-x--x---x---|x-x-x--x---x---|x-x-x--x---x---|x-x-x--x---x---| 
B|x-x-x--x---x---|x-x-x--x---x---|x-x-x--x---x---|x-x-x--x---x---| 
G|x-x-x--x---9---|x-x-x--x---9---|x-x-x--x---9---|x-x-x--x---9---| 
D|9-9-9--9---9---|9-9-9--9---9---|9-9-9--9---9---|9-9-9--9---9---| 
A|9-9-9--9---7---|9-9-9--9---7---|9-9-9--9---7---|9-9-9--9---7---| 
E|7-7-10-7---x---|7-7-10-7---x---|7-7-10-7---x---|7-7-10-7---x---| 

e|x-x-x--x---x---|x-x-x--x---x---|x-x-x--x---x---|x-x-x--x---x---| 
B|x-x-x--x---x---|x-x-x--x---x---|x-x-x--x---x---|x-x-x--x---x---| 
G|x-x-x--x---9---|x-x-x--x---9---|x-x-x--x---9---|x-x-x--x---9---| 
D|9-9-9--9---9---|9-9-9--9---9---|9-9-9--9---9---|9-9-9--9---9---| 
A|9-9-9--9---7---|9-9-9--9---7---|9-9-9--9---7---|9-9-9--9---7---| 
E|7-7-10-7---x---|7-7-10-7---x---|7-7-10-7---x---|7-7-10-7---x---| 

verse 3 
On te donne trois balles, 
on te donne trois balles, 
On te donne trois balles, 
la troisième t'es un vieux 
Softer 
Vieux, vieux, vieux, vieux, vieux, vieux, trop vieux 
Tu es très fatigué tu veux te reposer 
Tu branles la machine, tu courbes l'échine, l'échine 
Le dernier bumper t'envoie dans l'dernier trou 
Le dernier bumper t'envoie dans l'dernier trou 
Sur ta tombe y a écrit 
Sur ta tombe y a écrit 
Sur ta tombe y a écrit 
crescendo to Chorus 
More fun to compete, More fun to compete 
More fun to compete, More fun to compete 
More fun to compete, More fun to compete 
More fun to compete, More fun to compete 

Chorus 

e|x-x---x-x---x-x-x-x------x-x---x-x---x-x-x----| 
B|x-x---x-x---x-x-x-x------x-x---x-x---x-x-x----| 
G|x-x---x-x---x-7-9-7------x-x---7-7---x-x-x----| 
D|5-5---7-7---9-7-9-7------5-5---7-7---9-9-9----| 
A|5-5---7-7---9-7-7-7------5-5---5-5---9-9-9----| 
E|3-3---5-5---7-x-x-x------3-3---x-x---7-7-7----| 

  On joue sa vie comme on joue au flipper 
                           Déjà tout môme on flippe de bumper en bumper 

e|x-x---x-x---x-x-x-x------x-x---x-x---x-x-x----| 
B|x-x---x-x---x-x-x-x------x-x---x-x---x-x-x----| 
G|x-x---x-x---x-7-9-7------x-x---7-7---x-x-x----| 
D|5-5---7-7---9-7-9-7------5-5---7-7---9-9-9----| 
A|5-5---7-7---9-7-7-7------5-5---5-5---9-9-9----| 
E|3-3---5-5---7-x-x-x------3-3---x-x---7-7-7----| 

  On gagne on perd, et toujours on espère 
                           Pouvoir s'en refaire une petite 

e|x-x-x-x-x-x---------------x-x-x-x-x-x---------| 
B|x-x-x-x-x-x---------------x-x-x-x-x-x---------| 
G|9-9-9-9-9-9---------------9-9-9-9-9-9---------| 
D|9-9-9-9-9-9---------------9-9-9-9-9-9---------| 
A|7-7-7-7-7-7---------------7 7 7-7-7-7---------| 
E|x-x-x-x-x-x---------------x-x-x-x-x-x---------| 

  Je dis petite,           oh non non petite 

Outro 

e|x-x-x--x---x---|x-x-x--x---x---|x-x-x--x---x---|x-x-x--x---x---| 
B|x-x-x--x---x---|x-x-x--x---x---|x-x-x--x---x---|x-x-x--x---x---| 
G|x-x-x--x---9---|x-x-x--x---9---|x-x-x--x---9---|x-x-x--x---9---| 
D|9-9-9--9---9---|9-9-9--9---9---|9-9-9--9---9---|9-9-9--9---9---| 
A|9-9-9--9---7---|9-9-9--9---7---|9-9-9--9---7---|9-9-9--9---7---| 
E|7-7-10-7---x---|7-7-10-7---x---|7-7-10-7---x---|7-7-10-7---x---| 

Heiiiin                           gratuite, gratuite, gratuite, gratuite 

e|x-x-x--x---x---|x-x-x--x---x---|x-x-x--x---x---|x-x-x--x---x---| 
B|x-x-x--x---x---|x-x-x--x---x---|x-x-x--x---x---|x-x-x--x---x---| 
G|x-x-x--x---9---|x-x-x--x---9---|x-x-x--x---9---|x-x-x--x---9---| 
D|9-9-9--9---9---|9-9-9--9---9---|9-9-9--9---9---|9-9-9--9---9---| 
A|9-9-9--9---7---|9-9-9--9---7---|9-9-9--9---7---|9-9-9--9---7---| 
E|7-7-10-7---x---|7-7-10-7---x---|7-7-10-7---x---|7-7-10-7---x---| 



************************************ 

| x  Dead note 

************************************ 
		  

See also:

tabs Ira! - Poço de Sensibilidade (Solo - Acustico Mtv) tabs Deep Purple - Smoke On The Water tabs Deep Purple - Smoke on the water (intro) tabs Ira! - Eu Quero Sempre Mais (Com Pitty, intro) tabs Deep Purple - Smoke on the Water (ver. 2) tabs Deep Purple - Knocking At Your Back Door
e-chords

Other versions:

tabs Telephone - Flipper
auto scroll beats size up size down change color hide chords drawings
tab show chords e-chords YouTube Clip e-chords hide all tabs e-chords go to top tab

share