Ted Nugent

home > Ted Nugent

Free for all Tab

Ted Nugent

Difficulty: AdvancedAdvanced

by 2u4ubyu

tuner correct add songbook print version text version save to e-mail
chordsukulelecavacokeyboardtabbassdrumsharmonicsflute Guitar Pro
chords

Free for all

  		FREE - FOR - ALL 
As recorded by Ted Nugent 
(From the 1976 Album FREE - FOR - ALL) 
 
 
Words and Music by Ted Nugent 
 
E5 
x 7 9 9 x xD5 
x 5 7 7 x xB5 
x 2 4 4 x x Gtr I, II (E A D G B E) - 'Ted Nugent - Rhythm w/dist' 
Gtr III, IV (E A D G B E) - 'Ted Nugent - Lead w/dist' 
Gtr V (E A D G B E) - 'Ted Nugent - Rhythm / Lead w/dist' 
 
Intro 
  Q=112 
 4/4 
  Gtrs I, II 
  S S E E S S +S  S E E S S   S S E E S S +S  S E E E 
|---------------------------|-------------------------| 
|---------------------------|-------------------------| 
|-8s9---9---9-(9)-9---9-9-9-|-8s9---9-9-9-(9)-9---9-9-| 
|-8s9---9---9-(9)-9---9-9-9-|-8s9---9-9-9-(9)-9---9-9-| 
|-6s7---7---7-(7)-7---7-7-7-|-6s7---7-7-7-(7)-7---7-7-| 
|-----0---0-0-(0)-0-0-------|-----0---0-0-(0)-0-0-0-0-| 
 
 
  S S E E S S +S  S E E S S   S S E E S S +S  S E E S S 
|---------------------------|---------------------------|| 
|---------------------------|---------------------------|| 
|-8s9---9-9-9-(9)-9---9-9-9-|-8s9---9-9-9-(9)-9---9-9-9-|| 
|-8s9---9-9-9-(9)-9---9-9-9-|-8s9---9-9-9-(9)-9---9-9-9-|| 
|-6s7---7-7-7-(7)-7---7-7-7-|-6s7---7-7-7-(7)-7---7-7-7-|| 
|-----0---0-0-(0)-0-0-0-----|-----0---0-0-(0)-0-0-0-----|| 
 
 
 Verse 1 
  S S E E S S +S  S E E S S   S S E E S S +S  S E E S S 
|---------------------------|---------------------------| 
|---------------------------|---------------------------| 
|-8s9---9-9-9-(9)-9---9-9-9-|-8s9---9-9-9-(9)-9---9-9-9-| 
|-8s9---9-9-9-(9)-9---9-9-9-|-8s9---9-9-9-(9)-9---9-9-9-| 
|-6s7---7-7-7-(7)-7---7-7-7-|-6s7---7-7-7-(7)-7---7-7-7-| 
|-----0-0-0-0-(0)-0-0-0-----|-----0-0-0-0-(0)-0-0-0-----| 
|-Rhy Fig 1 
 
  S S E E S S +S  S E E S S   S S E E S S +S  S E E E 
|---------------------------|-------------------------| 
|---------------------------|-------------------------| 
|-8s9---9-9-9-(9)-9---9-9-9-|-8s9---9-9-9-(9)-9---9-9-| 
|-8s9---9-9-9-(9)-9---9-9-9-|-8s9---9-9-9-(9)-9---9-9-| 
|-6s7---7-7-7-(7)-7---7-7-7-|-6s7---7-7-7-(7)-7---7-7-| 
|-----0-0-0-0-(0)-0-0-0-----|-----0-0-0-0-(0)-0-0-0-0-| 
 
 
  S S E E S S +S  S E E S S   S S E E S S +S  S E E E 
|---------------------------|-------------------------| 
|---------------------------|-------------------------| 
|-8s9---9-9-9-(9)-9---9-9-9-|-8s9---9-9-9-(9)-9---9-9-| 
|-8s9---9-9-9-(9)-9---9-9-9-|-8s9---9-9-9-(9)-9---9-9-| 
|-6s7---7-7-7-(7)-7---7-7-7-|-6s7---7-7-7-(7)-7---7-7-| 
|-----0-0-0-0-(0)-0-0-0-----|-----0-0-0-0-(0)-0-0-0-0-| 
                                        end Rhy Fig 1-| 
 
Rhy Fig 1 (1st 2 bars only) 
 
                              |-w/Rhy Fig 1 (1st 4 bars only) 
                              Gtr V 
                                PM---------------|     PM----------| 
  W                             S S S S  S   S S S  S  S S S S S S S 
|-----------------------------|--------------------------------------| 
|-----------------------------|--------------------------------------| 
|-----------------------------|--------------------------------------| 
|-----------------------------|--------------------------------------| 
|-----------------------------|-6h7------7---7-7-6-------------------| 
|-----------------------------|-----0-0----------------0-0-0-0-0-0-0-| 
|                             |-Rhy Fig 2 
| 
| Gtrs III, IV                Gtr IV 
| S E S +S  E S S E S +S  S E   Q       +Q          H 
|-----------------------------|--------------------------------------| 
|-----------------------------|--------------------------------------| 
|-----------------------------|--------------------------------------| 
|-------------------------5-6-|--------------------------------------| 
|-7-------------5-6-7-(7)-----|-7-------(7)\-------------------------| 
|---4-5-(5)-6-7---------------|--------------------------------------| 
                              |-Fill 1                    end Fill 1-| 
 
  Gtr V 
  PM--------------------------------- 
  S S S S S S S S  S  S S S S S S S 
|-----------------------------------| 
|-----------------------------------| 
|-----------------------------------| 
|-----------------------------------| 
|-6h7-----7-7-7-6-------------------| 
|-----0-0-------------0-0-0-0-0-0-0-| 
 
 
 ---------------------------------------------------------------| 
  S S S S S S S S  S  S S S S S S S   S S S S S S S S +E    E E E 
|-----------------------------------|-------------------------------|| 
|-----------------------------------|-------------------------------|| 
|-----------------------------------|-------------------------------|| 
|-----------------------------------|-------------------------------|| 
|-6h7-----7-7-7-6-------------------|-6h7-----7-7-7-6-(6)---4-5-6---|| 
|-----0-0-------------0-0-0-0-0-0-0-|-----0-0-----------------------|| 
                                                      end Rhy Fig 2-| 
 
   Verses 
    $ 
w/Rhy Fig 2 x1.5 
    Gtr IV 
    Q       +Q         H 
||-------------------------------------| 
||o------------------------------------| 
||-------------------------------------| 
||-------------------------------------| 
||o-7-------(7)\-----------------------| 
||-------------------------------------| 
| 
| 
|Gtr II,IV on repeat only 
|   ~~~ 
|   Q       +Q         H 
||-------------------------------------| 
||o-9-------(9)\-----------------------| 
||--9-------(9)\-----------------------| 
||-------------------------------------| 
||o------------------------------------| 
||-------------------------------------| 
    Q       +Q         H 
 
Gtr IV on D.S. only 
  H               E    E    +Q 
|-----------------------------------------| 
|-----------------------------------------| 
|---------------------11---(11)b13========| 
|-----------------------------------------| 
|-----------------------------------------| 
|-----------------------------------------| 
| 
|Gtr III on D.S. only 
| H               E    E    +Q 
|-----------------------------------------| 
|-----------------------------------------| 
|----------------------2----(2)b4=========| 
|-----------------------------------------| 
|-----------------------------------------| 
|-----------------------------------------| 
 
 
    ~~~~~ 
   +Q         Q       H 
|-------------------------------------| 
|-------------------------------------| 
|-(11)r-------------------------------| 
|-------------------------------------| 
|-------------------------------------| 
|-------------------------------------| 
| 
|   ~~~~~ 
|  +Q         Q       H 
|-------------------------------------| 
|-------------------------------------| 
|--(2)r-------------------------------| 
|-------------------------------------| 
|-------------------------------------| 
|-------------------------------------| 
 
 
  H                E   E      +S   S  S  S 
|-------------------------------------------| 
|---------------------15pb17r(15)-12--------| 
|------------------------------------13-12--| 
|-------------------------------------------| 
|-------------------------------------------| 
|-------------------------------------------| 
| 
| H                E   E       S   S  S  S 
|---------------------15pb17r=15--12--------| 
|------------------------------------15-12--| 
|-------------------------------------------| 
|-------------------------------------------| 
|-------------------------------------------| 
|-------------------------------------------| 
 
 
   E    E   Q       H 
|-----------------------------------| 
|------12---------------------------| 
|-13--------------------------------| 
|-----------------------------------| 
|-----------------------------------| 
|-----------------------------------| 
| 
|  E    E   Q       H 
|------12---------------------------| 
|-15--------------------------------| 
|-----------------------------------| 
|-----------------------------------| 
|-----------------------------------| 
|-----------------------------------| 
 
 
                                    ~~~~~~ 
  H               S  S  S  S  S     E        +S 
|-------------------19-22-19-22b24-22b24====(22)r\--| 
|---------------------------------------------------| 
|---------------------------------------------------| 
|---------------------------------------------------| 
|---------------------------------------------------| 
|---------------------------------------------------| 
| 
|                                   ~~~~~~ 
| H               S  S  S  S  S     E        +S 
|-------------------------15-17b19-17b19====(17)r\--| 
|-------------------15h17---------------------------| 
|---------------------------------------------------| 
|---------------------------------------------------| 
|---------------------------------------------------| 
|---------------------------------------------------| 
 
 
  Gtrs I, II 
  E5 
  E E Q  H      W 
  | 
  / 
 
  Gtr V 
  E E Q  H      W 
|-------------|------|| 
|-------------|------|| 
|-------------|------|| 
|-------------|------|| 
|-7-----------|------|| 
|-------------|------|| 
|-Rhy Fill 1 -|(includes Rhythm slash) 
 
 Chorus 
  D5                E5       D5                E5 
  S S S S S S S S S S E Q    S S S S S S S S S S E Q 
  | | | | | | | | | | | |    | | | | | | | | | | | | 
  / / / / / / / / / / / /    / / / / / / / / / / / / 
 
  PM-----------------------------------------------| 
  S S S S S S S S S S E Q    S S S S S S S S S S E Q 
|--------------------------|--------------------------| 
|--------------------------|--------------------------| 
|--------------------------|--------------------------| 
|--------------------------|-4-4-4-4-4-4-4-4-4-6-6-6--| 
|-5-5-5-5-5-5-5-5-5-7-7-7--|--------------------------| 
|--------------------------|--------------------------| 
 
 
                            1.,D.S. 
                                            To Coda 
  D5                E5       B5 
  S S S S S S S S S S E Q    S S S S S S S S E E Q 
  | | | | | | | | | | | |    | | | | | | | | | 
  / / / / / / / / / / / /    / / / / / / / / / 
 
  PM--------------------| 
  S S S S S S S S S S E Q    S S S S S S S S E E Q 
|--------------------------|------------------------| 
|--------------------------|------------------------| 
|--------------------------|------------------------| 
|-7-7-7-7-7-7-7-7-7-9-9-9--|-4-4-4-4-4-4-4-4-4------| 
|--------------------------|------------------------| 
|--------------------------|------------------------| 
 
w/Rhy Fig 1 (1st 2 bars only) 
  PM------------|     PM----------------------------|     PM----------| 
  S S S S S S S S  S  S S S S S S S   S S S S S S S S  S  S S S S S S S 
|-----------------------------------|------------------------------------| 
|-----------------------------------|------------------------------------| 
|-----------------------------------|------------------------------------| 
|-----------------------------------|------------------------------------| 
|-6h7-----7-7-7-6-------------------|-6h7-----7-7-7-6--------------------| 
|-----0-0-------------0-0-0-0-0-0-0-|-----0-0-------------0-0-0-0-0-0-0--| 
 
 
  PM------------|     PM----------| 
  S S S S S S S S  S  S S S S S S S   S S S S S S  S S   E   E E   E 
|-----------------------------------|-----------------------------------|| 
|-----------------------------------|----------------------------------o|| 
|-----------------------------------|-----------------------------------|| 
|-----------------------------------|-----------------------------------|| 
|-6h7-----7-7-7-6-------------------|-5-5-5-5-5-5--5-5---5---4-5---6---o|| 
|-----0-0-------------0-0-0-0-0-0-0-|-----------------------------------|| 
| 
| S S E   E   S S +S  S E   E   S S   Q       Q          Q     Q 
|-----------------------------------|-----------------------------------|| 
|-----------------------------------|----------------------------------o|| 
|-8s9-----9---9-9-(9)-9-----9---9-9-|-7-------7----------7-----7--------|| 
|-8s9-----9---9-9-(9)-9-----9---9-9-|-7-------7----------7-----7--------|| 
|-6s7-----7---7-7-(7)-7-----7---7-7-|-5-------5----------5-----5-------o|| 
|-----0---0---0-0-(0)-0-0---0-------|-----------------------------------|| 
| 
|                                   Gtrs III, IV 
| W                                   Q       E    E    +E   Q    +E 
|-----------------------------------|-------------19---(19)-------------|| 
|-----------------------------------|-0-----------15---(15)-21---(21)\-o|| 
|-----------------------------------|-----------------------16---(16)\--|| 
|-----------------------------------|-----------------------------------|| 
|-----------------------------------|----------------------------------o|| 
|-----------------------------------|-----------------------------------|| 
                                      Q       E    E    +E   Q    +E 
 
 
                       Guitar Solo 
  2. 
  Gtrs III, IV        |-w/Rhy Fig  2 (last 2 bars only x3) 
   H..          +E       Q            Q        S  E.      Q 
|--------------------||-----------------------------------------------| 
|-17b21========(17)r-||-15-----------15-------15-15------15-----------| 
|-13b16========(13)r-||-14b16========14-------14-14r-----14b16========| 
|--------------------||-----------------------------------------------| 
|--------------------||-----------------------------------------------| 
|--------------------||-----------------------------------------------| 
 
                           ~~ 
   E    E    +S   S  S  S  H 
|------------------------------------------| 
|-15---------------------------------------| 
|------14r==(14)-12-12h14-13---------------| 
|-------------------------14---------------| 
|------------------------------------------| 
|------------------------------------------| 
 
 
                 ~~ 
   S  S  E    a  Q        S  S  E    a  E    E 
|----------------------------------------------------| 
|-------12---12h14-------------12---12h14---14b16====| 
|-11h13-12---12h14-------11h13-12---12h14---14b16====| 
|-12h14------------------12h14-----------------------| 
|----------------------------------------------------| 
|----------------------------------------------------| 
 
 
                              ~~ 
   +E    E    +S   S  +S   S  Q        +S   S  S  S 
|-------14---(14)--------------------------------12--| 
|-(14)--15---(15)-14r(14)p12---------------12-15-----| 
|-(14)------------14r(14)p12-13-------(13)-----------| 
|----------------------------14-------(14)-----------| 
|----------------------------------------------------| 
|----------------------------------------------------| 
 
 
  Gtr IV 
   E       E       S  S  S  S  E       E    S  S  S  S 
|-15b17---15b17---15-12-----------------------------12-| 
|-----------------------15-14-12--------------12-15----| 
|-------------------------------------13---13----------| 
|------------------------------------------------------| 
|------------------------------------------------------| 
|------------------------------------------------------| 
| 
| Gtr III 
|  E       E       S  S  S  S  E       E    E     S  S 
|------------------------------------------------------| 
|-15b17---15b17---15-12--------------------------12-15-| 
|-----------------------15-14-12b13--------------------| 
|-------------------------------------14---14----------| 
|------------------------------------------------------| 
|------------------------------------------------------| 
 
 
                               ~~ 
   E       E       S  S  S  S  H 
|-15b17---15b17---15-12-------14----------------| 
|-----------------------15-12-------------------| 
|-----------------------------------------------| 
|-----------------------------------------------| 
|-----------------------------------------------| 
|-----------------------------------------------| 
| 
|  E       E       S  S  S  S  H 
|-12-----------------------12-------------------| 
|---------15b17---15-12-15----15----------------| 
|-----------------------------------------------| 
|-----------------------------------------------| 
|-----------------------------------------------| 
|-----------------------------------------------| 
 
 
w/Rhy Fill 1 
 
  Gtrs IV, V 
                                               |--3--| 
   E      +E    E      +E   S  E      +S    E  S  S  S 
|-15b17==(15)r-----------------------------------------| 
|--------------15pb17r(15)-12--------------------------| 
|-----------------------------12b13==(12)r-------------| 
|------------------------------------------14----------| 
|---------------------------------------------12h13h14-| 
|------------------------------------------------------| 
 
 
                                                    D.S. al Coda 
   W                                W 
                            ~~~~~ 
   S  S  S  S  S  E.  E  E  Q       S E S +S  E S S E S +S  S E 
|-----------------------12-14b16--|------------------------------|| 
|-------------12-12--------15b17--|------------------------------|| 
|-------12----12-12---------------|------------------------------|| 
|-12-14----14--------14-----------|-------------------------5-6--|| 
|---------------------------------|-7-------------5-6-7-(7)------|| 
|---------------------------------|---4-5-(5)-6-7----------------|| 
 
 
   Outro 
    & 
w/Rhy Fig 2 (last 2 bars only) to end 
    Gtr IV 
                                                ~~~~~ 
     E       S  S  S  E.        E       E       Q 
||----------16-16------------------------------------------| 
||o-19b21---------19-19b21-----19b21---19b21---19b21-------| 
||---------------------------------------------------------| 
||---------------------------------------------------------| 
||o--------------------------------------------------------| 
||---------------------------------------------------------| 
| 
|   Gtr III 
|                                               ~~~~~ 
|    E       S  S  S  E.        E       E       Q 
||----------12-12------------------------------------------| 
||o-15b17---------15-15b17-----15b17---15b17---15b17-------| 
||---------------------------------------------------------| 
||---------------------------------------------------------| 
||o--------------------------------------------------------| 
||---------------------------------------------------------| 
 
 
                                          ~~~~~ 
   E       S  S  S  E.        E     E     Q 
|---------16-16------------------------------------|| 
|-19b21---------19-19b21-----19b21-19b21----------o|| 
|----------------------------------------16b18-----|| 
|--------------------------------------------------|| 
|-------------------------------------------------o|| 
|--------------------------------------------------|| 
| 
|                                         ~~~~~ 
|  E       S  S  S  E.        E     E     Q 
|---------12-12------------------------------------|| 
|-15b17---------15-15b17-----15b17-15b17----------o|| 
|----------------------------------------12b14-----|| 
|--------------------------------------------------|| 
|-------------------------------------------------o|| 
|--------------------------------------------------|| 
 
 
  Gtrs III, IV 
                                                        ~~ 
   E        +E      E        +E      S   E        +S    Q 
|-15b17====(15)r-------------------(12)-------------------------| 
|------------------15pb17r==(15)----12--12-------(12)-----------| 
|---------------------------------------12b13====(12)r-13-------| 
|------------------------------------------------------14-------| 
|---------------------------------------------------------------| 
|---------------------------------------------------------------| 
 
 
                                     ~~~~~~~~~~~~~~~~~~ 
   E        +E      S      +S   E    S      +E.    +Q 
|-15b17====(15)r--------------------14b16==(14)---(14)---| 
|------------------15pb17r(15)-12---15b17==(15)---(15)---| 
|--------------------------------------------------------| 
|--------------------------------------------------------| 
|--------------------------------------------------------| 
|--------------------------------------------------------| 
 
                                                        ~~ 
   E        +E      E        +E      S   E        +S    Q 
|-15b17====(15)r-------------------(12)-------------------------| 
|------------------15pb17r==(15)----12--12-------(12)-----------| 
|---------------------------------------12b13====(12)r-13-------| 
|------------------------------------------------------14-------| 
|---------------------------------------------------------------| 
|---------------------------------------------------------------| 
 
 
                                         ~~~~~ 
   E       E        +E     E    Q       +E    E 
|-15b17------------------------14b16===(14)r(14)-| 
|---------15pb17r==(15)---12---15b17r==(15)--12--| 
|------------------------------------------------| 
|------------------------------------------------| 
|------------------------------------------------| 
|------------------------------------------------| 
 
 
  Gtr IV 
   E       E       S  S  S  S  E       E    E    S  S 
|-14b16---14b16---14-12-------------------------------| 
|-----------------------15-14-12----------------12-15-| 
|-------------------------------------13---13---------| 
|-----------------------------------------------------| 
|-----------------------------------------------------| 
|-----------------------------------------------------| 
| 
| Gtr III 
|  E       E       S  S  S  S  E       E    E    S  S 
|-----------------------------------------------------| 
|-15b17---15b17---15-12-------------------------12-15-| 
|-----------------------15-14-12b13-------------------| 
|-------------------------------------14---14---------| 
|-----------------------------------------------------| 
|-----------------------------------------------------| 
 
 
                               ~~~ 
   E       E       S  S  S  S  H 
|-14b16---14b16---14-12----12-14--------| 
|-----------------------15--------------| 
|---------------------------------------| 
|---------------------------------------| 
|---------------------------------------| 
|---------------------------------------| 
| 
|                              ~~~ 
|  E       E       S  S  S  S  H 
|-12-----------------------12-----------| 
|---------15b17---15-12-15----15--------| 
|---------------------------------------| 
|---------------------------------------| 
|---------------------------------------| 
|---------------------------------------| 
 
 
   E       E       S  S  S  S  E       E    E    S  S 
|-14b16---14b16---14-12-------------------------------| 
|-----------------------15-14-12----------------12h14-| 
|-------------------------------------13---13---------| 
|-----------------------------------------------------| 
|-----------------------------------------------------| 
|-----------------------------------------------------| 
| 
|  E       E       S  S  S  S  E       E    E    S  S 
|-----------------------------------------------------| 
|-15b17---15b17---15-12-------------------------------| 
|-----------------------15-14-12b13-------------------| 
|-------------------------------------14---14---------| 
|-----------------------------------------------12h14-| 
|-----------------------------------------------------| 
 
 
                           ~~~~~ 
   S  S  S  S  S  S  E     H 
|-12---------------------------------------| 
|----14p12----12----12---------------------| 
|----------14----14-------14---------------| 
|------------------------------------------| 
|------------------------------------------| 
|------------------------------------------| 
| 
|                          ~~~~~ 
|  S  S  E     S  S  S  S  Q       S  S  E 
|----------------------12------------------| 
|-------12----------12----15b17---15p12----| 
|-------12----12h14---------------------14-| 
|-12h14------------------------------------| 
|------------------------------------------| 
|------------------------------------------| 
 
 
 
   ~~~~~ 
   H.                                                 Q 
|-16b18----------------------------------------------16b18-------------| 
|----------------------------------------------------------------------| 
|----------------------------------------------------------------------| 
|----------------------------------------------------------------------| 
|----------------------------------------------------------------------| 
|----------------------------------------------------------------------| 
| 
|  S     S  T  T  S  S  T  T  S  S  T  T  S  T  T  S  S     S  S     S 
|-------12-------------------------15p12----12-------------------------| 
|----------15p12----12-15p12----12-------12----15-12-------12-------12-| 
|-14b16----------14----------14----------------------14-------14b16----| 
|----------------------------------------------------------------------| 
|----------------------------------------------------------------------| 
|----------------------------------------------------------------------| 
 
 
   ~~~~~ 
   H..                                       E 
|-16b18--------------------------------------------| 
|--------------------------------------------------| 
|--------------------------------------------------| 
|--------------------------------------------------| 
|--------------------------------------------------| 
|--------------------------------------------------| 
| 
|  S     T  T  S  S  S  S  S  S  E     E  E  S  S 
|-12-----------------------------------------------| 
|-------15p12----12-------------15----15-----------| 
|-------------14----14-12----12-14b16-12----12-----| 
|-------------------------14-------------14----14--| 
|--------------------------------------------------| 
|--------------------------------------------------| 
 
 
   ~~~~~ 
   H.                                 Q 
|--------------------------------------------------| 
|-15b17------------------------------15b17---------| 
|--------------------------------------------------| 
|--------------------------------------------------| 
|--------------------------------------------------| 
|--------------------------------------------------| 
| 
|  E       S  S  E    E    S  S  e    E       S  S 
|---------12---------------------------------------| 
|-12---------14-15---12---12-14-15---12---------12-| 
|--------------------------------------------12----| 
|--------------------------------------------------| 
|--------------------------------------------------| 
|--------------------------------------------------| 
 
 
   ~~~~~ 
   H..                                                       E 
|-----------------------------------------------------------------| 
|-15b17-----------------------------------------------------------| 
|-----------------------------------------------------------------| 
|-----------------------------------------------------------------| 
|-----------------------------------------------------------------| 
|-----------------------------------------------------------------| 
| 
|  T     T  S  S  S     S  S  T  T  S  S   T  T  S  S  S  S  S  S 
|-------------------------12--------------------------------------| 
|----------------------12----15p12----12--15p12----12-------15----| 
|-14p===12----12-14b16-------------14-----------14----13s16----16-| 
|----------14-----------------------------------------------------| 
|-----------------------------------------------------------------| 
|-----------------------------------------------------------------| 
 
 
                                           ~~~~ 
   Q              Q             E         +Q. 
|-16b17-----------------------------------------------------| 
|----------------12------------15b17=====(15)---------------| 
|-----------------------------------------------------------| 
|-----------------------------------------------------------| 
|-----------------------------------------------------------| 
|-----------------------------------------------------------| 
| 
|  S     S  S  S  E    S  T  T  S      S   S   S  E    S  S 
|-----------------------------------------------------------| 
|-15-------15----15---15-15h17p15---------15--16-17---15----| 
|-------16----16----------------------16-----------------16-| 
|-----------------------------------------------------------| 
|-----------------------------------------------------------| 
|-----------------------------------------------------------| 
 
 
                               ~~~~~~ 
   E    E     Q                H 
|---------------------------------------------------| 
|-15r==15-------------------------------------------| 
|------------12---------------14b16=================| 
|---------------------------------------------------| 
|---------------------------------------------------| 
|---------------------------------------------------| 
| 
|                   |---3---| 
|  E    S  S  S  S  S  S    S  S      S  E  E.    S 
|------------------------------------------------15-| 
|------15----15----15h17p==15--------15-16-17-------| 
|---------16----16------------16--------------------| 
|-17------------------------------------------------| 
|---------------------------------------------------| 
|---------------------------------------------------| 
 
 
                               ~~ 
   E       +E     Q            H 
|----------------------------------------------------| 
|-----------------------------15---------------------| 
|-14r=====(14)---14b16-------------------------------| 
|----------------------------------------------------| 
|----------------------------------------------------| 
|----------------------------------------------------| 
| 
|                 ~~~~~~                   ~~ 
|  Q              Q            S  S  S  S  E    S  S 
|-17b19----------17b19========17-17-17-17-17---17-17-| 
|----------------------------------------------------| 
|----------------------------------------------------| 
|----------------------------------------------------| 
|----------------------------------------------------| 
|----------------------------------------------------| 
 
 
   E       E     S  S  E          H 
|-12------------15p12------------12----------------------| 
|---------15----------15---------------------------------| 
|--------------------------------------------------------| 
|--------------------------------------------------------| 
|--------------------------------------------------------| 
|--------------------------------------------------------| 
| 
|  S  +S   S  S  S  S  S  S      +S   +T   T  E  E  S  S 
|-17r(17)p15----15-17-17-17b19==(17)r(17)p15-------------| 
|------------17------------------------------17-17-15----| 
|-----------------------------------------------------16-| 
|--------------------------------------------------------| 
|--------------------------------------------------------| 
|--------------------------------------------------------| 
 
 
             ~~~~~~~~~~~~~~~~~~~~~~~~~~~~~~~~~~~~~ 
   E        +Q.                              +Q             Q 
|-15b17====(15)-----------------------------(15)r----------------------| 
|----------------------------------------------------------------------| 
|----------------------------------------------------------------------| 
|----------------------------------------------------------------------| 
|----------------------------------------------------------------------| 
|----------------------------------------------------------------------| 
| 
|  E        +E      E        a       +E       S    S  S  S  S  S  S  S 
|----------------------------------------------------------------15-17-| 
|-17b19====(17)r---17b19r==(17)b19==(17)r----17---15----15-16-17-------| 
|----------------------------------------------------16----------------| 
|----------------------------------------------------------------------| 
|----------------------------------------------------------------------| 
|----------------------------------------------------------------------| 
 
 
                                                  ~~~~~~~~~~~~~~ 
   Q                  +Q                     S    E.        +Q 
|-17b19==============(17)r------------------15-----------------------------| 
|------------------------------------------------17--------(17)------------| 
|--------------------------------------------------------------------------| 
|--------------------------------------------------------------------------| 
|--------------------------------------------------------------------------| 
|--------------------------------------------------------------------------| 
| 
|  E       +T   T  S   S    S  a  S  S      +S   +T   T  E   E   S  S 
|-17b19r==(17)p15-----15---17-15h17-17b19==(17)r(17)p15---------15-17b19===| 
|-----------------17------------------------------------17--17-------------| 
|--------------------------------------------------------------------------| 
|--------------------------------------------------------------------------| 
|--------------------------------------------------------------------------| 
|--------------------------------------------------------------------------| 
 
 
    E      Q                    E       E.        S      +E      E 
|---------19b21----------------19b21---19b21-----19b21==(19)r---19b21---| 
|-----------------------------------------------------------------------| 
|-----------------------------------------------------------------------| 
|-----------------------------------------------------------------------| 
|-----------------------------------------------------------------------| 
|-----------------------------------------------------------------------| 
| 
|  +E      E        +S    E.            E.        S      +E      E 
|-(17)r---17b19====(17)r-17b19---------17b19-----17b19==(17)r---17b19---| 
|-----------------------------------------------------------------------| 
|-----------------------------------------------------------------------| 
|-----------------------------------------------------------------------| 
|-----------------------------------------------------------------------| 
|-----------------------------------------------------------------------| 
 
 
   E       Q                    E        +E.           S     +E      E 
|-19b21---19b21----------------19b21====(19)r---------19b21-(19)b21-19b21-| 
|-------------------------------------------------------------------------| 
|-------------------------------------------------------------------------| 
|-------------------------------------------------------------------------| 
|-------------------------------------------------------------------------| 
|-------------------------------------------------------------------------| 
| 
|  E.            S      +E      E        +S    E.             E      E 
|-17b19---------17b19==(17)r---17b19====(17)r-17b19----------17b19--17b19-| 
|-------------------------------------------------------------------------| 
|-------------------------------------------------------------------------| 
|-------------------------------------------------------------------------| 
|-------------------------------------------------------------------------| 
|-------------------------------------------------------------------------| 
 
 
   E.        S      +E      E        +S    E.        E       E 
|-19b21-----19b21==(19)r---19b21====(19)r-19b21-----19b21---19b21----*| 
|--------------------------------------------------------------------*| 
|--------------------------------------------------------------------*| 
|--------------------------------------------------------------------*| 
|--------------------------------------------------------------------*| 
|--------------------------------------------------------------------*| 
| 
|  E.        S      +E      E        +S    E.        E       E 
|-17b19-----17b19==(17)r---17b19====(17)r-17b19-----17b19---17b19----*| 
|--------------------------------------------------------------------*| 
|--------------------------------------------------------------------*| 
|--------------------------------------------------------------------*| 
|--------------------------------------------------------------------*| 
|--------------------------------------------------------------------*| 
 
 
********* 
You found it at E-Chords 
Submitted By: David Campbell 
Ontario Canada  
 

	  

Full key step upFull key step up
Half key step upHalf key step up
Half key step downHalf key step down
Full key step downFull key step down
Search Paypal
auto scroll beats size up size down change color hide chords drawings
tab show chords e-chords YouTube Clip e-chords hide all tabs e-chords go to top tab