Ted Nugent

home > Ted Nugent

Cat scratch fever Tab

Ted Nugent

Difficulty: ExpertExpert

by 2u4ubyu

tuner correct add songbook print version text version save to e-mail
chordsukulelecavacokeyboardtabbassdrumsharmonicsflute Guitar Pro
chords

Cat scratch fever

  		CAT SCRATCH FEVER 
As recorded by Ted Nugent 
(From the 1977 Album CAT SCRATCH FEVER) 
 
 
Words and Music by Ted NugentGtr I (E A D G B E) - 'Ted Nugent - Rhythm w/dist' 
Gtr II (E A D G B E) - 'Ted Nugent - Lead w/dist' 
 
Intro 
  Q=127 
 4/4 
  Gtr I 
                             ~             ~~~~~~                ~ 
  Q     +E  E   +E  E E E  E Q  E   E E E  E +H       E E E E  E Q  E 
|-------------|-------------------|-----------------|-----------------| 
|-5pb7r=(5)---|-------------------|-----------------|-----------------| 
|-4pb6r=(4)-2-|-(2)---4---/5-5----|-2-4---/5-(5)----|-2---4---/5-5----| 
|-----------2-|-(2)---4---/5-5----|-2-4---/5-(5)----|-2---4---/5-5----| 
|-----------0-|-(0)-0---0-------0-|-----0-----------|---0---0-------0-| 
|-------------|-------------------|-----------------|-----------------| 
 
 
  Gtr II 
   H        E  a    +E  +E  E   +W 
|-----------------------------|-------------------| 
|--------------5b7==(5)r(5)---|-------------------| 
|--------------4b6==(4)r(4)---|-------------------| 
|-----------------------------|-------------------| 
|---------------------------0-|-(0)---------------| 
|-----------------------------|-------------------| 
| 
| Gtr I 
|                                            ~ 
|  E E E E +E  a    +E  +E  E   +E  E E E  E Q  E 
|-----------------------------|-------------------| 
|--------------5b7==(5)r(5)---|-------------------| 
|-/5-4---2-(2)-4b6==(4)r(4)-2-|-(2)---4---/5-5----| 
|-/5-4---2-(2)--------------2-|-(2)---4---/5-5----| 
|------0--------------------0-|-(0)-0---0-------0-| 
|-----------------------------|-------------------| 
 
 
  +W                      +W 
|----------------------|----------------------| 
|----------------------|----------------------| 
|----------------------|----------------------| 
|----------------------|----------------------| 
|-(0)------------------|-({0})----------------| 
|----------------------|----------------------| 
| 
|          ~~~~~~                       ~ 
|  E  E E  E +E  E E E     E   E E E  E Q  E 
|----------------------|----------------------| 
|----------------------|----------------------| 
|--2--4---/5-(5)-------|---2-----4---/5-5-----| 
|--2--4---/5-(5)-------|---2-----4---/5-5-----| 
|-------0--------------|-------0---0-------0--| 
|----------------0-3-4-|----------------------| 
 
 
  +H         H          W                 W 
|---------------------|-----------------|--------------------| 
|---------------------|-----------------|--------------------| 
|---------------------|-----------------|--------------------| 
|---------------------|-----------------|--------------------| 
|-(0)-----------------|-----------------|--------------------| 
|---------------------|-----------------|--------------------| 
| 
|                                  ~             ~~~~~~ 
|  E  E E E +E  E E E   E E E E  E Q  E   E E E  E +E  E E E 
|---------------------|-----------------|--------------------| 
|---------------------|-----------------|--------------------| 
|-/5--4---2-(2)-------|-2---4---/5-5----|-2-4---/5-(5)-------| 
|-/5--4---2-(2)-------|-2---4---/5-5----|-2-4---/5-(5)-------| 
|-------0-------------|---0---0-------0-|-----0--------------| 
|---------------0-3-4-|-----------------|--------------0-3-4-| 
 
 
                                              ~~~ 
  W                  H        E   E      +E   E 
|-----------------|----------15-----------------| 
|-----------------|--------------15pb17r(15)-13-| 
|-----------------|-----------------------------| 
|-----------------|-----------------------------| 
|-----------------|-----------------------------| 
|-----------------|-----------------------------| 
| 
|            ~ 
| E E E E  E Q  E    E E E E +E   E       E   E 
|-----------------|-----------------------------| 
|-----------------|-----------------------------| 
|-2---4---/5-5----|-/5-4---2-(2)----------------| 
|-2---4---/5-5----|-/5-4---2-(2)----------------| 
|---0---0-------0-|------0----------------------| 
|-----------------|---------------0-------3---4-| 
 
 
 ~~~~~~ 
   +Q     E      +E   +S       +S   +S       +S   +S       +S   +S       +S 
|------------------------------------------------------------------------------| 
|-(13)---15b17==(15)r(15)b17==(15)r(15)b17==(15)r(15)b17==(15)r(15)b17==(15)r\-| 
|------------------------------------------------------------------------------| 
|------------------------------------------------------------------------------| 
|------------------------------------------------------------------------------| 
|------------------------------------------------------------------------------| 
| 
|                                    ~~~~~~~~ 
|   E  E  E       E    E             Q                           E 
|------------------------------------------------------------------------------| 
|------------------------------------------------------------------------------| 
|---2-----4-----------/5-------------5-----------------------------------------| 
|---2-----4-----------/5-------------5-----------------------------------------| 
|------0----------0----------------------------------------------0-------------| 
|------------------------------------------------------------------------------| 
 
 
         ~~~~~~                   ~ 
  E E E  E +E  E E E   E E E E  E Q  E 
|--------------------|-----------------| 
|--------------------|-----------------| 
|-2-4---/5-(5)-------|-2---4---/5-5----| 
|-2-4---/5-(5)-------|-2---4---/5-5----| 
|-----0--------------|---0---0-------0-| 
|--------------0-3-4-|-----------------| 
 
 
                                 ~~~~~~~~~~~~~~~~~~~ 
   S  S  E  S      +S    S      +S   +Q.      +E 
|---------------------------------------------------|| 
|-20p17h20-20b22==(20)r-20b22==(20)-(20)-----(20)r\-|| 
|---------------------------------------------------|| 
|---------------------------------------------------|| 
|---------------------------------------------------|| 
|---------------------------------------------------|| 
| 
|  E     E  E            E           +E  E E   E 
|---------------------------------------------------|| 
|---------------------------------------------------|| 
|-/5-----4---------------2-----------(2)-------2----|| 
|-/5-----4---------------2-----------(2)-------2----|| 
|-----------0----------------------------------0----|| 
|----------------------------------------0-3--------|| 
 
 
   Verses 
    Gtr I 
    +E  E E E E E E E   E E E E +E  E E E   E E E E E E E E 
||--------------------|-------------------|-------------2---| 
||o-------------------|-------------------|-------------3---| 
||--(2)---5---2---5---|-2-5---2-(2)-------|-------0---2---2-| 
||--(2)---5---2---5---|-2-5---2-(2)-------|-----0---0-----2-| 
||o-(0)-0---0---0---0-|-----0-------0-3-4-|---2-----------0-| 
||--------------------|-------------------|-3---------------| 
 |-Rhy Fig 1 
 
  +E  E E E E E a    +E   E   +E  E E E E E E E   E E E E +E  E E E 
|---------------------------|-------------------|--------------------| 
|---------------------------|-------------------|--------------------| 
|-(2)---5---2-5-----------2-|-(2)---5---2---5---|-2-5---2-(2)--------| 
|-(2)---5---2-5-----------2-|-(2)---5---2---5---|-2-5---2-(2)--------| 
|-(0)-0---0---------------0-|-(0)-0---0---0---0-|-----0-------0-3-4--| 
|---------------3b4==(3)r---|-------------------|--------------------| 
 
 
  E E E E E E E E   +E  E E E E E E E 
|-------------2---|-------------------|| 
|-------------3---|-------------------|| 
|-------0---2---2-|-(2)---5---2-------|| 
|-----0---0-----2-|-(2)---5---2-------|| 
|---2-----------0-|-(0)-0---0---------|| 
|-3---------------|-------------0-3-4-|| 
                        end Rhy Fig 1-| 
 
 Chorus 
             ~             ~~~~~~                   ~ 
  E E E E  E Q  E   E E E  E +E  E E E   E E E E  E Q  E 
|-----------------|--------------------|-----------------| 
|-----------------|--------------------|-----------------| 
|-2---4---/5-5----|-2-4---/5-(5)-------|-2---4---/5-5----| 
|-2---4---/5-5----|-2-4---/5-(5)-------|-2---4---/5-5----| 
|---0---0-------0-|-----0--------------|---0---0-------0-| 
|-----------------|--------------0-3-4-|-----------------| 
 
 
  1. 
  Gtr II 
                         ~~~~ 
   E  E  S      +S   E  +Q          +Q 
|----15-------------------------------------|| 
|-------15pb17r(15)-13-(13)--------(13)\---o|| 
|-------------------------------------------|| 
|-------------------------------------------|| 
|------------------------------------------o|| 
|-------------------------------------------|| 
| 
| Gtr I 
|  E  E  E           E  +E  E a     +E   E 
|-------------------------------------------|| 
|------------------------------------------o|| 
|-/5--4--------------2--(2)--------------2--|| 
|-/5--4--------------2--(2)--------------2--|| 
|--------0-------------------------------0-o|| 
|---------------------------0-3b4===(3)r----|| 
 
 
  2. 
                      ~~~~~~~         ~~~~ 
    E  E  S      +S   E  +E   a      +E   +Q        W 
|-----15------------------------------------------|------------------| 
|--------15pb17r(15)-13-(13)-15b17==(15)-(15)r\---|------------------| 
|-------------------------------------------------|------------------| 
|-------------------------------------------------|------------------| 
|-------------------------------------------------|------------------| 
|-------------------------------------------------|------------------| 
| 
|                                                              ~ 
|   E  E  E           E  +E           E    E    E   E E E E  E Q  E 
|-------------------------------------------------|------------------| 
|-------------------------------------------------|------------------| 
|--/5--4--------------2--(2)----------------------|-2---4---/5-5-----| 
|--/5--4--------------2--(2)----------------------|-2---4---/5-5-----| 
|---------0---------------------------------------|---0---0-------0--| 
|-------------------------------------0----3----4-|------------------| 
 
 
                              ~~~~~~~~ 
   E  E  a      +E    a      +E   +Q     +Q        W 
|------------------------------------------------|-----------------| 
|-20p17-20b22==(20)r-20b22==(20)-(20)---(20)r\---|-----------------| 
|------------------------------------------------|-----------------| 
|------------------------------------------------|-----------------| 
|------------------------------------------------|-----------------| 
|------------------------------------------------|-----------------| 
| 
|                             ~~~~~~~~                        ~ 
|  E  E          E            E   +E  E   E    E   E E E E  E Q  E 
|------------------------------------------------|-----------------| 
|------------------------------------------------|-----------------| 
|--2--4----------------------/5---(5)------------|-2---4---/5-5----| 
|--2--4----------------------/5---(5)------------|-2---4---/5-5----| 
|----------------0-------------------------------|---0---0-------0-| 
|-------------------------------------0---3----4-|-----------------| 
 
 
                              ~~~~~~~~ 
   E  E  a      +E    a      +E   +Q     +E    E 
|-20p17-20b22==(20)r-20b22==(20)-(20)---(20)r\---|| 
|-20p17-20b22==(20)r-20b22==(20)-(20)---(20)r\---|| 
|------------------------------------------------|| 
|------------------------------------------------|| 
|------------------------------------------------|| 
|------------------------------------------------|| 
| 
|  E  E          E            E   +E  E   E    E 
|------------------------------------------------|| 
|------------------------------------------------|| 
|-/5--4-----------------------2---(2)----------8-|| 
|-/5--4-----------------------2---(2)----------8-|| 
|----------------0------------0---(0)-0---0----6-|| 
|------------------------------------------------|| 
 
 
 Bridge 
  Gtr I 
      ~~~~~~~~    ~~~~~~~~~~~~~~~~ 
  +E  E E E E Q   E   +E  E E E E Q    E 
|-------------------|--------------------| 
|-------------------|--------------------| 
|-(8)-8-8-8-8-8\--5-|-(5)-5-5-5-5-5\--/8-| 
|-(8)-8-8-8-8-8\--5-|-(5)-5-5-5-5-5\--/8-| 
|-(6)-6-6-6-6-6\--3-|-(3)-3-3-3-3-3\--/6-| 
|-------------------|--------------------| 
 
 
                     Gtr II 
   W                    E  E E E E E E E 
|--------------------|-------------------| 
|--------------------|-----6-5---6-5-----| 
|--------------------|-----5-5-5-5-5-5---| 
|--------------------|---------5-----5---| 
|--------------------|-------------------| 
|--------------------|-------------------| 
| 
| Gtr I 
|  ~~~~~~~~~~~ 
| +E  E E E E Q    E   +Q.     E E E E E 
|--------------------|-------------------| 
|--------------------|-------------------| 
|-(8)-8-8-8-8-8\--/5-|-(5)-----5-5-5-5S8-| 
|-(8)-8-8-8-8-8\--/5-|-(5)-----5-5-5-5S8-| 
|-(6)-6-6-6-6-6\--/3-|-(3)-----3-3-3-3S6-| 
|--------------------|-------------------| 
 
 
  Gtr I 
   ~~~~~~~~~~~     ~~~~~~~~~~~~~~~~ 
  +E  E E E E Q    E   +E  E E E E Q    E 
|--------------------|--------------------| 
|--------------------|--------------------| 
|-(8)-8-8-8-8-8\--/5-|-(5)-5-5-5-5-5\--/8-| 
|-(8)-8-8-8-8-8\--/5-|-(5)-5-5-5-5-5\--/8-| 
|-(6)-6-6-6-6-6\--/3-|-(3)-3-3-3-3-3\--/6-| 
|--------------------|--------------------| 
 
 
                                          Gtr II 
   W                   W                     H       E a E E E 
|-------------------|---------------------|---------------------|| 
|-------------------|---------------------|---------------------|| 
|-------------------|---------------------|----------------5-7--|| 
|-------------------|---------------------|------------5s7------|| 
|-------------------|---------------------|---------------------|| 
|-------------------|---------------------|---------------------|| 
| 
| Gtr I 
|  ~~~~~~~~~~~~~~~ 
| +E  E E E E E E E   +E  E E E +E  E E E   +E  Q  E E   E E E 
|-------------------|---------------------|---------------------|| 
|-------------------|---------------------|---------------------|| 
|-(8)-8-8-8-8-8-8-9-|-(9)-----9-(9)-----9-|-(9)-9--9------------|| 
|-(8)-8-8-8-8-8-8-9-|-(9)-----9-(9)-----9-|-(9)-9--9------------|| 
|-(6)-6-6-6-6-6-6-7-|-(7)-----7-(7)-----7-|-(7)-7--7------------|| 
|-------------------|-----0-0-------0-0---|--------------0-3-4--|| 
 
 
 Guitar Solo 
   ~~~~~~~~~~~~~~~~~         ~~~~~~           ~~~~ 
   E E E E  E E E E   E E E  E +E  E E a     +E 
|-------------------|----------------------------| 
|-/8-8-8-8--8-8-8-8-|-8-7-5--------5-8-8b10==(8)-| 
|-/9-9-9-9--9-9-9-9-|-9-7-5----------------------| 
|-------------------|--------7-(7)---------------| 
|-------------------|----------------------------| 
|-------------------|----------------------------| 
| 
|             ~              ~~~~~~ 
|  E E E E  E Q   E   E E E  E +E  E E        E 
|-------------------|----------------------------| 
|-------------------|----------------------------| 
|--2---4---/5-5-----|-2-4---/5-(5)---------------| 
|--2---4---/5-5-----|-2-4---/5-(5)---------------| 
|----0---0--------0-|-----0----------------------| 
|-------------------|--------------0-3--------4--| 
 
 
 ~~~~~~         ~~~~ 
  +Q     a     +Q      S S S S S S S S 
|--------------------------------------| 
|-(8)r---8b10==(8)r----8-5-------------| 
|--------------------------8-7-5---5-7-| 
|--------------------------------7-----| 
|--------------------------------------| 
|--------------------------------------| 
| 
|                          ~ 
|  E   E        E   E  E   Q       E 
|--------------------------------------| 
|--------------------------------------| 
|--2------------4-----/5---5-----------| 
|--2------------4-----/5---5-----------| 
|------0------------0--------------0---| 
|--------------------------------------| 
 
 
               ~~~~~~ 
   E E    +E   E +E   E E  a      +E 
|--5----------------------10b12==(10)r| 
|--5--------------------8-------------| 
|----5b6==(5)r-7-(7)-/9---------------| 
|-------------------------------------| 
|-------------------------------------| 
|-------------------------------------| 
| 
|  E E     E   E +E   E E          E 
|-------------------------------------| 
|-------------------------------------| 
|-/5-4---------2-(2)------------------| 
|-/5-4---------2-(2)------------------| 
|----------0--------------------------| 
|---------------------0-3----------4--| 
 
 
                                                                   ~~~~~~~~~~~~ 
   +E  E E  a      +E   +E  E E  a      +E     +Q     +E   E      +Q.      +E 
|-(10)-----10b12==(10)r(10)-----10b12==(10)-|-(10)r==(10)-10b12==(10)-----(10)-| 
|--------8--------------------8-------------|----------------------------------| 
|------9--------------------9---------------|----------------------------------| 
|-------------------------------------------|----------------------------------| 
|-------------------------------------------|----------------------------------| 
|-------------------------------------------|----------------------------------| 
| 
|                           ~                              ~~~~~~~~~~~ 
|   E  E E          E    E  Q            E      E  E   E   E      +E  E E   E 
|-------------------------------------------|----------------------------------| 
|-------------------------------------------|----------------------------------| 
|---2----4--------------/5--5---------------|---2--4------/5------(5)----------| 
|---2----4--------------/5--5---------------|---2--4------/5------(5)----------| 
|------0------------0--------------------0--|----------0-----------------------| 
|-------------------------------------------|-------------------------0-3---4--| 
 
 
   ~~~~~~~~~~~~~~~~~~~~~~~~                         ~~~~~~~ 
   E  E  E  E  E  E  E  E     a      +E   +S  S  E  E  +E    E  E  a      +E 
|-10-10-10-10-10-10-10-10r-|-10b12==(10)r(10)p8-------------------------------| 
|--------------------------|--------------------10-10-(10)-----13-15b17==(15)-| 
|--------------------------|-------------------------------/14----------------| 
|--------------------------|--------------------------------------------------| 
|--------------------------|--------------------------------------------------| 
|--------------------------|--------------------------------------------------| 
| 
|                 ~~ 
|  E  E  E  E  E  Q     E             E    E     E  E  +E    E  E          E 
|--------------------------|--------------------------------------------------| 
|--------------------------|--------------------------------------------------| 
|--2-----4----/5--5--------|---------/5----4--------2--(2)-----------------7--| 
|--2-----4----/5--5--------|---------/5----4--------2--(2)-----------------7--| 
|-----0-----0-----------0--|---------------------0-----------0--0----------5--| 
|--------------------------|--------------------------------------------------| 
 
 
   +E    a      +E    a      +E   E  S  +S   E  a      +E    E 
|--------------------------------15----------------------------| 
|-(15)r-15b17==(15)r-15b17==(15)----15r(15)-13-15b17==(15)r-15-| 
|--------------------------------------------------------------| 
|--------------------------------------------------------------| 
|--------------------------------------------------------------| 
|--------------------------------------------------------------| 
| 
|  +E            E            E   E  E       E          E    E 
|--------------------------------------------------------------| 
|--------------------------------------------------------------| 
|--(7)-----------7------------7---7--9-------9---------------5-| 
|--(7)-----------7------------7---7--9-------9---------------5-| 
|--(5)-----------5------------5---5--7-------7---------------3-| 
|--------------------------------------------------------------| 
 
 
                                                ~~~~~~~~~~~~~~~ 
   +E   E  a      +E   E  S  +S   E  E  a      +E     +Q     Q    E   E      +E    E 
|---------------------15---------------------------|------------------------------17-| 
|-(15)-13-15b17==(15)----15r(15)-17-20-20b22==(20)-|-(20)---20---20r-----------------| 
|--------------------------------17----------------|-----------------19b21==(19)r----| 
|--------------------------------------------------|---------------------------------| 
|--------------------------------------------------|---------------------------------| 
|--------------------------------------------------|---------------------------------| 
| 
|                                                                     ~~~~~~ 
|  +E   E          E   E  E       E  E          E      E  E  E E  E   Q            E 
|--------------------------------------------------|---------------------------------| 
|--------------------------------------------------|---------------------------------| 
|--(5)--5----------5---5--7------------------------|---2-----4---/5---5--------------| 
|--(5)--5----------5---5--7------------------------|---2-----4---/5---5--------------| 
|--(3)--3----------3---3--5------------------------|------0----0-------------------0-| 
|---------------------------------0--3----------4--|---------------------------------| 
 
 
   E     +E    E  E     +E    E  E     +E 
|-------------17-------------17------------| 
|------------------------------------------| 
|-19b21=(19)r----19b21=(19)r----19b21=(19)r| 
|------------------------------------------| 
|------------------------------------------| 
|------------------------------------------| 
| 
|                 ~~~~~~~~~~~ 
|  E      E    E  E     +E    E  E      E 
|------------------------------------------| 
|------------------------------------------| 
|--2------4------/5-----(5)----------------| 
|--2------4------/5-----(5)----------------| 
|--------------0---------------------------| 
|-----------------------------0--3------4--| 
 
 
   +S      +S   +S      +S   E  a      +E   +Q     +E       +E 
|----------------------------------------------------------------| 
|----------------------------------------------------------------| 
|=(19)b21=(19)r(19)b21=(19)r---19b21==(19)-(19)r==(19)b21==(19)r-| 
|----------------------------------------------------------------| 
|----------------------------------------------------------------| 
|----------------------------------------------------------------| 
| 
|                                              ~ 
|  E            E           E          E    E  Q            E 
|----------------------------------------------------------------| 
|----------------------------------------------------------------| 
|---2------------------------4--------------/5--5----------------| 
|---2------------------------4--------------/5--5----------------| 
|----------------0----------------------0--------------------0---| 
|----------------------------------------------------------------| 
 
 
                              ~~~~~~~~~~~~~~~~~~~~~~~~~~~ 
   a      +E    E  E  a      +E   +Q.              +E 
|--------------------------------------------------------|| 
|-20b22==(20)r-17-20-20b22==(20)-(20)-------------(20)r\-|| 
|--------------------------------------------------------|| 
|--------------------------------------------------------|| 
|--------------------------------------------------------|| 
|--------------------------------------------------------|| 
| 
|          E    E  E          E   +E  E a    +E     E 
|--------------------------------------------------------|| 
|--------------------------------------------------------|| 
|---------/5----4-------------2---(2)---------------2----|| 
|---------/5----4-------------2---(2)---------------2----|| 
|------------------0--------------------------------0----|| 
|-------------------------------------0-3b4==(3)r--------|| 
 
 
 Verse 3 
w/Rhy Fig 1 
|-------------------|-------------------|----------------| 
 
 
  Gtr II 
                                 ~~~~ 
   E   E  E      +E   E  a      +Q             +E 
|-----15---------------------------------------------| 
|--------15pb17r(15)-13-15b17==(15)-----------(15)r\-| 
|----------------------------------------------------| 
|----------------------------------------------------| 
|----------------------------------------------------| 
|----------------------------------------------------| 
 
 
   W                  W 
|-------------------|-------------------| 
|-------------------|-------------------| 
|-------------------|-------------------| 
|-------------------|-------------------| 
|-------------------|-------------------| 
|-------------------|-------------------| 
 
 
                                                       ~~~~ 
  W                  E   E  E  E  a      +E    a      +E   +Q 
|-----------------|-----17-20-17-20b22==(20)r-20b22==(20)-(20)r\---|| 
|-----------------|-----17-20-17-20b22==(20)r-20b22==(20)-(20)r\---|| 
|-----------------|------------------------------------------------|| 
|-----------------|------------------------------------------------|| 
|-----------------|------------------------------------------------|| 
|-----------------|------------------------------------------------|| 
 
 
 Chorus 
  Gtr I 
             ~             ~~~~~~                   ~ 
  E E E E  E Q  E   E E E  E +E  E E E   E E E E  E Q  E 
|-----------------|--------------------|-----------------| 
|-----------------|--------------------|-----------------| 
|-2---4---/5-5----|-2-4---/5-(5)-------|-2---4---/5-5----| 
|-2---4---/5-5----|-2-4---/5-(5)-------|-2---4---/5-5----| 
|---0---0-------0-|-----0--------------|---0---0-------0-| 
|-----------------|--------------0-3-4-|-----------------| 
 
 
  Gtr II 
                       ~~ 
   E  Q    E      +E   Q    +E     W                 W 
|----17--------------------------|-----------------|--------------------| 
|----17---17pb19r(17)------------|-----------------|--------------------| 
|---------18pb20r(18)-18---(18)\-|-----------------|--------------------| 
|---------------------19---(19)\-|-----------------|--------------------| 
|--------------------------------|-----------------|--------------------| 
|--------------------------------|-----------------|--------------------| 
| 
| Gtr I 
|                                             ~             ~~~~~~ 
|  E  E E  E      +E   E E   E     E E E E  E Q  E   E E E  E +E  E E E 
|--------------------------------|-----------------|--------------------| 
|--------------------------------|-----------------|--------------------| 
|-/5--4----2------(2)------------|-2---4---/5-5----|-2-4---/5-(5)-------| 
|-/5--4----2------(2)------------|-2---4---/5-5----|-2-4---/5-(5)-------| 
|-------0------------------------|---0---0-------0-|-----0--------------| 
|----------------------0-3---4---|-----------------|--------------0-3-4-| 
 
 
                                                ~~~~~~~~ 
  W                  E  E  a      +E    a      +E   +Q.      +E 
|-----------------|------------------------------------------------|| 
|-----------------|-20-17-20b22==(20)r-20b22==(20)-(20)-----(20)r\-|| 
|-----------------|------------------------------------------------|| 
|-----------------|------------------------------------------------|| 
|-----------------|------------------------------------------------|| 
|-----------------|------------------------------------------------|| 
| 
|            ~ 
| E E E E  E Q  E    E  E          E            E   +E  E E   E 
|-----------------|------------------------------------------------|| 
|-----------------|------------------------------------------------|| 
|-2---4---/5-5----|-/5--4-----------------------2---(2)------------|| 
|-2---4---/5-5----|-/5--4-----------------------2---(2)------------|| 
|---0---0-------0-|----------------0-------------------------------|| 
|-----------------|-------------------------------------0-3---4----|| 
 
 
 Breakdown 
  W 
|-----------------|| 
|-----------------|| 
|-----------------|| 
|-----------------|| 
|-----------------|| 
|-----------------|| 
| 
|            ~~ 
| E E E E  E Q. 
|-----------------|| 
|-----------------|| 
|-2---4---/5-5----|| 
|-2---4---/5-5----|| 
|---0---0---------|| 
|-----------------|| 
 
 
  W                 W 
|-----------------|-----------------| 
|-----------------|-----------------| 
|-----------------|-----------------| 
|-----------------|-----------------| 
|-----------------|-----------------| 
|-----------------|-----------------| 
| 
|        ~~~~~~                ~~ 
| E E E  E +H       E E E E  E Q. 
|-----------------|-----------------| 
|-----------------|-----------------| 
|-2-4---/5-(5)----|-2---4---/5-5----| 
|-2-4---/5-(5)----|-2---4---/5-5----| 
|-----0-----------|---0---0---------| 
|-----------------|-----------------| 
 
 
   H        E   E      +E  E   +W 
|--------------12pb14r(12)---|-------------------| 
|--------------12pb14r(12)---|-------------------| 
|----------------------------|-------------------| 
|----------------------------|-------------------| 
|--------------------------0-|-(0)---------------| 
|----------------------------|-------------------| 
| 
|                                           ~ 
|  E E E E +E   E      +E  E   +E  E E E  E Q  E 
|----------------------------|-------------------| 
|----------------------------|-------------------| 
|-/5-4---2-(2)--4pb6r==(4)-2-|-(2)---4---/5-5----| 
|-/5-4---2-(2)-------------2-|-(2)---4---/5-5----| 
|------0-------------------0-|-(0)-0---0-------0-| 
|----------------------------|-------------------| 
 
 
  +W                  +W                  +H        +E   E E E 
|-------------------|-------------------|----------------------|| 
|-------------------|-------------------|----------------------|| 
|-------------------|-------------------|------------------5-7-|| 
|-------------------|-------------------|---------------/7-----|| 
|-(0)---------------|-(0)---------------|-(0)-------(0)--------|| 
|-------------------|-------------------|----------------------|| 
| 
|          ~~~~~~                  ~ 
|  E  E E  E +H        E  E E E  E Q  E    E  E E E +E   E E E 
|-------------------|-------------------|----------------------|| 
|-------------------|-------------------|----------------------|| 
|--2--4---/5-(5)----|--2----4---/5-5----|-/5--4---2-(2)--------|| 
|--2--4---/5-(5)----|--2----4---/5-5----|-/5--4---2-(2)--------|| 
|-------0-----------|-----0---0-------0-|-------0--------------|| 
|-------------------|-------------------|----------------0-3-4-|| 
 
 
 Chorus 
  a    +E  S S  a    +E  S S  a    +E  S S  a    +E  S S 
|---------------------------------------------------------| 
|---------------------------------------------------------| 
|-7b9==(7)-7-7r-7b9==(7)-7-7r-7b9==(7)-7-7r-7b9==(7)-7-7r-| 
|---------------------------------------------------------| 
|---------------------------------------------------------| 
|---------------------------------------------------------| 
| 
|                                      ~ 
|       E  E          E  E          E  Q             E 
|---------------------------------------------------------| 
|---------------------------------------------------------| 
|-------2-------------4------------/5--5------------------| 
|-------2-------------4------------/5--5------------------| 
|----------0-------------0---------------------------0----| 
|---------------------------------------------------------| 
|-Rhy Fig 2 
 
                     ~~~~~~~~ 
  a    +E  E E a     E  +E   E E E 
|-----------------------------------| 
|--------------------5--(5)--5-8-5--| 
|-7b9==(7)-7-5-7b9==(7)-(7)r--------| 
|-----------------------------------| 
|-----------------------------------| 
|-----------------------------------| 
| 
|                    ~~~~~~~~ 
|       E  E E       E  +E   E E E 
|-----------------------------------| 
|-----------------------------------| 
|-------2--4---------5--(5)---------| 
|-------2--4---------5--(5)---------| 
|------------0----------------------| 
|----------------------------0-3-4--| 
 
 
  a     +E  S S  a     +E  S S  a     +E  S S  a     +E  E 
|----------------------------------------------------------| 
|-8b10==(8)-8-8r-8b10==(8)-8-8r-8b10==(8)-8-8r-8b10==(8)-8-| 
|----------------------------------------------------------| 
|----------------------------------------------------------| 
|----------------------------------------------------------| 
|----------------------------------------------------------| 
| 
|                                         ~ 
|        E  E           E  E           E  Q              E 
|----------------------------------------------------------| 
|----------------------------------------------------------| 
|--------2--------------4-------------/5--5----------------| 
|--------2--------------4-------------/5--5----------------| 
|-----------0--------------0-----------------------------0-| 
|----------------------------------------------------------| 
 
 
  a +S  S E E E +E   E E E 
|--------------------------| 
|-8r(8)-5--------------8-8-| 
|---------7-5-------/9---9-| 
|-------------7-(7)--------| 
|--------------------------| 
|--------------------------| 
| 
|    E    E E E +E   E E E 
|--------------------------| 
|--------------------------| 
|---/5----4---2-(2)--------| 
|---/5----4---2-(2)--------| 
|-----------0--------------| 
|--------------------0-3-4-| 
             end Rhy Fig 2-| 
 
w/Rhy Fig 2 x2 
  ~~~~~~~~~~~~~~~~~                                         ~~~~ 
  E E E E  E E E E   E S S E a      E  +E     E  E  a      +E 
|------------------|----------------0--(0)---------------------| 
|-8-8-8----8---8---|-8-------8b10==(8)-(8)r--------15b17==(15)-| 
|-9-9-9-9----9---9-|---9s7-5--------------------14-------------| 
|------------------|------------------------/14----------------| 
|------------------|-------------------------------------------| 
|------------------|-------------------------------------------| 
 
 
 ~~~~~~~~~~~~~~~~~~~~~ 
   +Q     Q    Q    Q 
|-----------------------| 
|-(15)---15---15---15---| 
|-----------------------| 
|-----------------------| 
|-----------------------| 
|-----------------------| 
 
 
   E  +S   S  E  E  +E    E  E  a     +E     +E    E  a     +E    E  a     +E   E  a  +E   E 
|-----------------------------------------|--------------------------------------------------| 
|-15r(15)p13------------------------------|-------20-------------20------------20------------| 
|------------14-14-(14)-----17-19b21=(19)-|-(19)r----19b21=(19)r----19b21=(19)----19r(19)-17-| 
|-----------------------/19---------------|--------------------------------------------------| 
|-----------------------------------------|--------------------------------------------------| 
|-----------------------------------------|--------------------------------------------------| 
 
 
                                ~~~~~~~~~ 
   a      +E    E  a      +E   +E   +E    E  E  a      +E 
|-----------------------------------------------------------| 
|-----------------20b22==(20)-(20)-(20)r-17-20-20b22==(20)--| 
|-19b21==(19)r-19-------------------------------------------| 
|-----------------------------------------------------------| 
|-----------------------------------------------------------| 
|-----------------------------------------------------------| 
 
 
   ~~~~~~~~~~~~~~~~~~~~~~~                     ~~~~~~~~ 
   E  E  E  E  E  E  E  E    E   E  E  a      +E   +Q     +Q 
|-------------------------|---------------------------------------|| 
|-20-20-20-20-20-20-20-20-|-20r-20-17-20b22==(20)-(20)---(20)r\---|| 
|-------------------------|---------------------------------------|| 
|-------------------------|---------------------------------------|| 
|-------------------------|---------------------------------------|| 
|-------------------------|---------------------------------------|| 
 
 
 Outro - Free Time 
                                                      ~~~~~~ 
   a       Q      a       Q      a      +E    a      +Q. 
|----------------------------------------------------------: 
|---------10-------------12-----14b17==(14)r-14b17==(14)---: 
|-12b14==(12)r---14b16==(14)r---14b17==(14)r-14b17==(14)---: 
|----------------------------------------------------------: 
|----------------------------------------------------------: 
|----------------------------------------------------------: 
| 
|                                                     ~~~~~~ 
|          E   E          E   E          E            Q. 
|----------------------------------------------------------: 
|----------------------------------------------------------: 
|----------2--------------4-------------/5------------5----: 
|----------2--------------4-------------/5------------5----: 
|--------------0--------------0----------------------------: 
|----------------------------------------------------------: 
 
 
 ~~~~~~~                                 ~~~~~~~~ 
   +W               a      +E    a      +E   +H. 
|----------------:----------------------------------: 
|-(14)r----------:-14b17==(14)r-14b17==(14)-(14)----: 
|-(14)-----------:-14b17==(14)r-14b17==(14)-(14)----: 
|----------------:----------------------------------: 
|----------------:----------------------------------: 
|----------------:----------------------------------: 
| 
|~~~~~~~                                 ~~~~~~~~ 
|  +H.       E E            E           +E   +H. 
|----------------:----------------------------------: 
|----------------:----------------------------------: 
|--(5)-----------:----------5-----------(5)--(5)----: 
|--(5)-----------:----------5-----------(5)--(5)----: 
|------------0-0-:----------------------------------: 
|----------------:----------------------------------: 
 
 
    ~~~~~                          ~~~~~ 
   +H        a      +Q     a      +Q 
|--------------------------------------: 
|-(14)r-----14b17==(14)r--14b17==(14)--: 
|-(14)r-----14b17==(14)r--14b17==(14)--: 
|--------------------------------------: 
|--------------------------------------: 
|--------------------------------------: 
| 
|   ~~~~~                          ~~~~~ 
|  +Q    Q           Q             Q 
|--------------------------------------: 
|--------------------------------------: 
|--(5)---------------5-------------5---: 
|--(5)---------------5-------------5---: 
|--------0-----------------------------: 
|--------------------------------------: 
 
 
 ~~~~~~~                                  ~~~~~~~~~~~~ 
   +W               a      +Q     a      +H      +Q 
|----------------:-------------------------------------: 
|-(14)r----------:-14b17==(14)r--14b17==(14)----(14)r==: 
|-(14)r----------:-14b17==(14)r--14b17==(14)----(14)r==: 
|----------------:-------------------------------------: 
|----------------:-------------------------------------: 
|----------------:-------------------------------------: 
| 
|~~~~~~~ 
|  +H.       E E            Q             H. 
|----------------:-------------------------------------: 
|----------------:-------------------------------------: 
|--(5)-----------:----------5-------------5------------: 
|--(5)-----------:----------5-------------5------------: 
|------------0-0-:-------------------------------------: 
|----------------:-------------------------------------: 
 
 
          ~~~ 
                |--3--|  |-----3-----| 
   +Q     Q     E  E  E  S      +S   S  S  S 
|--------------------------------------------: 
|-(14)---14-------13-15-15pb17r(15)p13----13-: 
|-(14)---14---/14----------------------14----: 
|--------------------------------------------: 
|--------------------------------------------: 
|--------------------------------------------: 
| 
|  +E. S +H. 
|--------------------------------------------: 
|--------------------------------------------: 
|--(5)-2-(2)---------------------------------: 
|--(5)-2-(2)---------------------------------: 
|------0-(0)---------------------------------: 
|--------------------------------------------: 
 
 
                                              |--3--| 
   a      +S   +S   S  S  S      +S   +S   S  E  E  E      +S   +S   S  S 
|-------------------------------------------------------------------------: 
|-15b17==(15)r(15)p13----15b17==(15)r(15)p13----13-15b17==(15)r(15)p13----: 
|---------------------14---------------------14------------------------14-: 
|-------------------------------------------------------------------------: 
|-------------------------------------------------------------------------: 
|-------------------------------------------------------------------------: 
| 
|          TP 
|          W 
|-------------------------------------------------------------------------: 
|-------------------------------------------------------------------------: 
|----------4--------------------------------------------------------------: 
|----------4--------------------------------------------------------------: 
|----------0--------------------------------------------------------------: 
|-------------------------------------------------------------------------: 
 
 
         ~~~~~~~                                       ~~~~~~~~~~~~ 
   S  S  E  +H.         a       Q     a       Q     E  Q.      +H      Q   Q 
|--------------------:--------------------------------------:---------17\-----*| 
|-13-12--------------:---------10------------10----14-14----:-(14)------------*| 
|-------14-(14)------:-12b14==(12)r--12b14==(12)r--14-14----:-(14)------------*| 
|--------------------:--------------------------------------:-----------------*| 
|--------------------:--------------------------------------:-----------------*| 
|--------------------:--------------------------------------:-----------------*| 
| 
|  W                            Q             Q     E  Q.      +H      Q   Q 
|--------------------:--------------------------------------:-----------------*| 
|--------------------:--------------------------------------:-----------------*| 
|--2-----------------:----------2-------------2-----2--2----:--(2)-----2------*| 
|--2-----------------:----------2-------------2-----2--2----:--(2)-----2------*| 
|--0-----------------:----------0-------------0-----0--0----:--(0)-----0------*| 
|--------------------:--------------------------------------:-----------------*| 
 
********* 
You found it at E-Chords 
Submitted By: David Campbell 
Ontario Canada  
 

	  

Full key step upFull key step up
Half key step upHalf key step up
Half key step downHalf key step down
Full key step downFull key step down
Search Paypal
auto scroll beats size up size down change color hide chords drawings
tab show chords e-chords YouTube Clip e-chords hide all tabs e-chords go to top tab