Taurus

Mundo em Alerta

Taurus

tabs Intermediate intermediate

by  GABRIEL FOX

save to print version add songbook text version e-mail correct tuner
chordsukulelecavacokeyboardtabbassdrumsharmonicaflute Guitar Pro
close

there isn't a video lesson for this song

chords

Mundo em Alerta

	  		Mundo em Aletra (Taurus) 
(Cifras e Tabs: Gabriel Fox) 
 
Intro: 
|----------------|-----------------|-----------------|-----------------| 
|----------------|-----------------|-----------------|-----------------| 
|----------------|-----------------|-----------------|-----------------| 
|----------------|-----------------|-----------------|-------3-2-------| 
|-2-2-2-2-3-3-3--|-2-2-2-2-5-3-0-2-|--2-2-2-2-3-3-3--|-2-2-2-----5-2---| 
|----------------|-----------------|-----------------|-----------------| 
 
 
Verso: 
 
|----------------|-----------------|-----------------|-----------------| 
|----------------|-----------------|-----------------|-----------------| 
|----------------|-----------------|-----------------|-----------------| 
|----------------|-----------------|-----------------|-------3-2-------| 
|-2-2-2-2-3-3-3--|-2-2-2-2-5-3-0-2-|--2-2-2-2-3-3-3--|-2-2-2-----5-2---| 
|----------------|-----------------|-----------------|-----------------| 
Suas medalhas de general  
Ambição após ambição  
Suas medalhas de líder infernal  
Colocando seu pacto em ação  
 
|----------------|-----------------|-----------------|-----------------| 
|----------------|-----------------|-----------------|-----------------| 
|----------------|-----------------|-----------------|-------5-4-------| 
|-4-4-4-4-5-5-5--|-4-4-4-4-7-5-2-4-|--4-4-4-4-5-5-5--|-4-4-4-3-2-7-4---| 
|-2-2-2-2-3-3-3--|-2-2-2-2-5-3-0-2-|--2-2-2-2-3-3-3--|-2-2-2-----5-2---| 
|----------------|-----------------|-----------------|-----------------| 
Líder político e militar  
Sua mente sobrenatural  
Soldados do inferno a marchar  
A batalha, o seu ideal  
 
Refrão: 
|----------------|-----------------|-----------------|-----------------| 
|----------------|-----------------|-----------------|-----------------| 
|----------------|-4-4-4-4-4-4-4-4-|-----------------|-----------------| 
|-4-4-4-4-4-4-4--|-2-2-2-2-2-2-2-2-|-----------------|------4-4-4------| 
|-2-2-2-2-2-2-2--|-----------------|-7-7-7-7-7-7-7-7-|-7-7--2-2-2------|2x 
|----------------|-----------------|-5-5-5-5-5-5-5-5-|-5-5-------------| 
  Líder nazista,   líder infernal    A força de sua mente o mal  
 
|----------------|-----------------|-----------------|-----------------| 
|----------------|-----------------|-----------------|-----------------| 
|----------------|-4-4-4-4-4-4-4-4-|-----------------|-----------------| 
|-4-4-4-4-4-4-4--|-2-2-2-2-2-2-2-2-|-7-7-7-7-7-7-7-7-|-6-6-6-----------| 
|-2-2-2-2-2-2-2--|-----------------|-5-5-5-5-5-5-5-5-|-4-4-4-----------| 
|----------------|-----------------|-----------------|-----------------| 
 
Intro: 
|----------------|-----------------|-----------------|-----------------| 
|----------------|-----------------|-----------------|-----------------| 
|----------------|-----------------|-----------------|-----------------| 
|----------------|-----------------|-----------------|-------3-2-------| 
|-2-2-2-2-3-3-3--|-2-2-2-2-5-3-0-2-|--2-2-2-2-3-3-3--|-2-2-2-----5-2---| 
|----------------|-----------------|-----------------|-----------------| 
 
 
Verso: 
 
|----------------|-----------------|-----------------|-----------------| 
|----------------|-----------------|-----------------|-----------------| 
|----------------|-----------------|-----------------|-----------------| 
|----------------|-----------------|-----------------|-------3-2-------| 
|-2-2-2-2-3-3-3--|-2-2-2-2-5-3-0-2-|--2-2-2-2-3-3-3--|-2-2-2-----5-2---| 
|----------------|-----------------|-----------------|-----------------| 
Judeus pagam com a vida  
O mundo paga com a guerra  
Todos gritam pela paz  
Arianos gritam pela guerra  
 
Refrão: 
|----------------|-----------------|-----------------|-----------------| 
|----------------|-----------------|-----------------|-----------------| 
|----------------|-4-4-4-4-4-4-4-4-|-----------------|-----------------| 
|-4-4-4-4-4-4-4--|-2-2-2-2-2-2-2-2-|-----------------|------4-4-4------| 
|-2-2-2-2-2-2-2--|-----------------|-7-7-7-7-7-7-7-7-|-7-7--2-2-2------|2x 
|----------------|-----------------|-5-5-5-5-5-5-5-5-|-5-5-------------| 
  Líder nazista,   líder infernal    A força de sua mente o mal  
 
|----------------|-----------------|-----------------|-----------------| 
|----------------|-----------------|-----------------|-----------------| 
|----------------|-4-4-4-4-4-4-4-4-|-----------------|-----------------| 
|-4-4-4-4-4-4-4--|-2-2-2-2-2-2-2-2-|-7-7-7-7-7-7-7-7-|-6-6-6-----------| 
|-2-2-2-2-2-2-2--|-----------------|-5-5-5-5-5-5-5-5-|-4-4-4-----------| 
|----------------|-----------------|-----------------|-----------------| 
 
Base Solo: 
|----------------|-----------------|-----------------|-----------------| 
|----------------|-----------------|-----------------|-----------------| 
|----------------|-----------------|-----------------|-----------------| 
|----------------|---------3-2-----|-----------------|-----------------| 
|-2-2-2-2-2-2-2-2|-3-2-3-5----2----|-2-2-2-2-2-2-2-2-|-3-2-3-5---------|(Repete) 
|-0-0-0-0-0-0-0-0|------------0----|-0-0-0-0-0-0-0-0-|-----------------| 
 
|----------------|-----------------|-----------------|-----------------| 
|----------------|-----------------|-----------------|-----------------| 
|----------------|-----------------|-----------------|-----------------| 
|----------------|---------3-2-----|-----------------|-----------------| 
|-2-2-2-2-2-2-2-2|-3-2-3-5----2----|-2-2-2-2-2-2-2-2-|-3-2-3-5---------| 
|-0-0-0-0-0-0-0-0|------------0----|-0-0-0-0-0-0-0-0-|-----------------| 
Führer, seu império eliminado  
Führer  
Führer, sua mente destruída  
Führer  
 
|----------------|-----------------|-----------------|-----------------| 
|----------------|-----------------|-----------------|-----------------| 
|----------------|-----------------|-----------------|-----------------| 
|----------------|-----------------|-----------------|-------3-2-------| 
|-2-2-2-2-3-3-3--|-2-2-2-2-5-3-0-2-|--2-2-2-2-3-3-3--|-2-2-2-----5-2---| 
|----------------|-----------------|-----------------|-----------------| 
Suas medalhas de general  
Destruídas por sua ambição  
Sua medalhas de líder infernal  
Enterradas por sua vingança  
 
|----------------|-----------------|-----------------|-----------------| 
|----------------|-----------------|-----------------|-----------------| 
|----------------|-----------------|-----------------|-----------------| 
|----------------|-----------------|-----------------|-------3-2-------| 
|-2-2-2-2-3-3-3--|-2-2-2-2-5-3-0-2-|--2-2-2-2-3-3-3--|-2-2-2-----5-2---| 
|----------------|-----------------|-----------------|-----------------| 
Comandos alemães destruídos  
Bloqueados por grandes forças  
Hitler e seus soldados  
Todos, todos destruídos  
 
(E vai pro Refrão...) 
 

		  

Full key step upFull key step up
Half key step upHalf key step up
Half key step downHalf key step down
Full key step downFull key step down
auto scroll beats size up size down change color hide chords drawings
tab show chords e-chords YouTube Clip e-chords hide all tabs e-chords go to top tab

share