Tanlan

home > Tanlan

Eles Dizem Tab

Tanlan

Difficulty: nolevelnolevel

by paulantunes

tuner correct add songbook print version text version save to e-mail
chordsukulelecavacokeyboardtabbassdrumsharmonicsflute Guitar Pro
chords

Eles Dizem

  		E 
Eles sempre dizem  
                  A 
o que você precisa ser 
             C#m 
Como se sentir sobre tudo 
                       A 
o que importa ou não saber 

            E 
Eles sempre dizem   
                  A 
O que você precisa ter 
             C#m 
o que deve amar e o que 
                A 
O que deve esquecer 

            E 
Eles sempre dizem,      A 
você não vais mais conseguir 
             C#m 
Tudo é tão difícl, alto, longe 
              A 
e nunca vai ter fim 
           E 
Todos eles dizem  
                     F#m 
Você precisa se encaixar 
               A 
Ser igual aos outros  
          Am 
e não tentar mudar 

           E                  A 
        Será que alguém vai me escutar 
           C#m             A 
        Eu tenho tanto em mim 
           E                 A 
        Será que alguém vai me levar 
               C#m    B 
        Pra algum lugar melhor 

E A  E A 

E 
Conectei, compartilhei, eu sei 
A 
quando encontrei tudo isso então pensei 
C#m                    A 
sinta.... o que é real 

E 
Vida que vai, vida que vem 
       A 
não há nada qum mude o que se tem 
       C#m             A 
sem primeiro mudar você 
  
Riff 3 
   E                  A 
Será que alguém vai me escutar 
   C#m             A 
Eu tenho tanto em mim 
   E                 A 
Será que alguém vai me levar 
       C#m    B 
Pra algum lugar melhor 
   E                  A 
Será que alguém vai me escutar 
   C#m             C D E F# G# (acordes oitavados) 
Eu tenho tanto em mim 
   C#m                 C 
Será que alguém vai me levar 
        A    B           Riff 1 Riff 4 
Pra algum lugar melhor 

Riff 1 
E|--------------------------------------------------------------------------------------| 
B|--------------------------------------------------------------------------------------| 
G|--------------------------------------------------------------------------------------| 
D|--6-----------------------6--------------------7--6-------------------------------4-4-| 
A|-----7-----7--9--7-----7-----7-----7--9--7-----------7-----7--9--7--4--5-5-5-5-5--5-5-| 
E|--------9-----------9-----------9-----------9-----------9--------------3-3-3-3-3------| 

Riff 2 
E|--------------------------------------------------------------------| 
B|--------------------------------------------------------------------| 
G|--------------------------------------------------------------------| 
D|--2-2---2-2---2---2-2--------------2-2---2-2---2---2-2--------------| 
A|--2-2---2-2---2---2-2--------------2-2---2-2---2---2-2--------------| 
E|--0-0---0-0---0---0-0---0-2-4-0----0-0---0-0---0---0-0---5-6-7------| 

Riff 3 
E|----------------------------------------------| 
B|----------------------------------------------| 
G|----------------------------------------------| 
D|--6-----------------------6-------------------| 
A|-----7-----7--9--7-----7-----7-----7--9--7----| 
E|--------9-----------9-----------9-------------| 

Riff 4 
E|----------------------------------------------------------------------------------------| 
B|----------------------------------------------------------------------------------------| 
G|----------------------------------------------------------------------------------------| 
D|--6-----------------------6---------------------------------------------------------4-4-| 
A|-----7-----7--9--7-----7-----7-----7--9--7-----7--7----7-----7--9--7--4--5-5-5-5-5--5-5-| 
E|--------9-----------9-----------9-----------9-----------9--------------3-3-3-3-3--------| 
	  

Full key step upFull key step up
Half key step upHalf key step up
Half key step downHalf key step down
Full key step downFull key step down
Search Paypal
auto scroll beats size up size down change color hide chords drawings
tab show chords e-chords YouTube Clip e-chords hide all tabs e-chords go to top tab