Tankard

Rundown Quarter

Tankard

tabs

by  HEBEALMEIDA

save to print version add songbook text version e-mail correct tuner
chordsukulelecavacokeyboardtabbassdrumsharmonicaflute Guitar Pro
close

there isn't a video lesson for this song

chords

Rundown Quarter

	  		 Riff 1 
|-------------------------------------| 
|-------------------------------------| 
|-------------------------------------| 
|-------------------------------------| 
|-7----7----5--------4-5-4-5-2--------| 
|-5-55-5-55-3-333333-2-3-2-3-0-000000-| 
    ..   ..   ......     . .   ...... 
|-------------------------------------| 
|-------------------------------------| 
|-------------------------------------| 
|-------------------------------------| 
|-7----7----5--------4-5-4-5-7~~~--\--| 
|-5-55-5-55-3-333333-2-3-2-3-5~~~--\--| 
    ..   ..   ...... . . . . 

 Riff 2 
|-----------------------------------| 
|-----------------------------------| 
|-----------------------------------| 
|--------------55-7--7-5-2----------| 
|-7-5-2--2-5-7-33-5--5-3-0--33-22---| 
|-5-3-0--0-3-5--------------------3-| 

 RIFF 3 
|------------------------------------------------------| 
|------------------------------------------------------| 
|------------------------------------------------------| 
|-2-5-7-7-5-4--2-5-4--------2-5-7-7-5-4--2-5-4---------| 
|-0-3-5-5-3-2--0-3-2-----7--0-3-5-5-3-2--0-3-2-3-2-3b--| 
|--------------------3-5-5---------------------.-.-----| 
                     . . 

 Riff 4 
|-------------------------------------| 
|-------------------------------------| 
|-------------------------------------| 
|-------------------5--------4--------| 
|-7-----------------3-333333-2-222222-| 
|-5-555555-3-555555---......---......-| 
    ...... . ...... 

|------------------------------------------| 
|------------------------------------------| 
|------------------------------------------| 
|-------------------5--------------5-7-5-4-| 
|-7-----------------3-333333-5-5-7-3-5-3-2-| 
|-5-555555-3-555555---......-3-3-5---------| 
    ...... . ...... 

|---------------------------------| 
|---------------------------------| 
|---------------------------------| 
|-------------------5-------------| 
|-7-----------------3-333333-5~~--| 
|-5-555555-3-555555---......-3~~--| 
    ...... . ...... 

 Solo riff 1 = Riff 1 

 Solo riff 2                       x2 
|------------------------------------| 
|------------------------------------| 
|------------------------------------| 
|-7--------5--------4----------------| 
|-5-777777-3-333333-2-22222222222222-| 
|---......---......---.............--| 
                                   x1 
|------------------------------------| 
|------------------------------------| 
|-7--------5--------4----------------| 
|-5-777777-3-333333-2-22222222222222-| 
|---......---......---..............-| 
|------------------------------------| 
                       x1 
|------------------------| 
|------------------------| 
|------------------------| 
|-7--------5--------4----| 
|-5-777777-3-333333-2----| 
|---......---......------| 
		  

auto scroll beats size up size down change color hide chords drawings
tab show chords e-chords YouTube Clip e-chords hide all tabs e-chords go to top tab

share