Tankard

Alcoholic Nightmares

Tankard

tabs Beginner beginner

by  ALYSLIMA

save to print version add songbook text version e-mail correct tuner
chordsukulelecavacokeyboardtabbassdrumsharmonicaflute Guitar Pro
close

there isn't a video lesson for this song

chords

Alcoholic Nightmares

	  		 Intro 
|-------| 
|-------| 
|-------| 
|-4-5-7-| 
|-2-3-5-| 
|-------| 


 Riff 1 
|-----------------|-----------------| 
|-----------------|-----------------| 
|-----------------|-----------------| 
|-----------4-5-7-|-----------4-5-7-| 
|-2---------2-3-5-|-3---------2-3-5-| 
|-0-0"------------|-1-1"------------| 
    .                 . 


 Riff 2 
|---------------------------------| 
|---------------------------------| 
|---6-7---6-7---6-7---6-7-6-4-----| 
|-4-----4-----4-----4---------7-6-| 
|---------------------------------| 
|---------------------------------| 
| 
|---------------------------------| 
|---------------------------------| 
|---------------------------------| 
|---------------------------------| 
|-4-----5-----4-----55--5--4--5---| 
|-2-----3-----2-----33--3--2--3---| 
                    ..  .  . 
|---------------------------------| 
|-----------------7---------------| 
|---6-7---6-7---6-----6-7-6-4-----| 
|-4-----4-----4-----4---------7~--| 
|---------------------------------| 
|---------------------------------| 
| 
|---------------------------------| 
|---------------------------------| 
|---------------------------------| 
|---------------------------------| 
|-4-----5-----4-----55--5--4--7---| 
|-2-----3-----2-----33--3--2--5---| 
                    ..  .  . 
|-------------------------------------| 
|-------------------------------------| 
|---6-7---6-7---6-7---6-7-6-4---------| 
|-4-----4-----4-----4---------7-6-3*--| 
|-------------------------------------| 
|-------------------------------------| 

|-------------------------------------| 
|-------------------------------------| 
|-------------------------------------| 
|-------------------------------------| 
|-4-----5-----4-----55--5--4--5---3---| 
|-2-----3-----2-----33--3--2--3---1---| 
                    ..  .  . 

 Riff 3a 
|-------------------------------------------| 
|-------------------------------------------| 
|-------------------------------------------| 
|-------5--55-4--44-------------5--55-4-5-7-| 
|-2--22-3--33-2--22-5--4--2--22-3--33-2-3-5-| 
|-0--00----..----..-3--2--0--00----..-------| 
     ,,                      .. 

 Riff 3b                                                    (1)       (2) 
|-------------------------------------------------|------------|---------| 
|-------------------------------------------------|------------|---------| 
|-------------------------------------------------|------------|---------| 
|---------5-5-5-5-4-4-4-4-----------------5-5-5-5-|-4-4-5-5-7--|-4-4-5-7-| 
|-2-2-2-2-3-3-3-3-2-2-2-2-5-5-4-4-2-2-2-2-3-3-3-3-|-2-2-3-3-5--|-2-2-3-5-| 
|-0-0-0-0-.-.-.-.-.-.-.-.-3-3-2-2-0-0-0-0-.-.-.-.-|-.-.-.-.----|---------| 
  . . . .                 . . . . . . . . 

 Solo riff  
|----------------------------------------------------------------------| 
|----------------------------------------------------------------------| 
|----------------------------------------------------------------------| 
|---------5-------4-------------------------5-------4----5----7--------| 
|-2-------3555555-2222222-5----4----2-------3333333-2222-3333-55555555-| 
|-0000000-----------------3333-2222-0000000----------------------------| 
		  

auto scroll beats size up size down change color hide chords drawings
tab show chords e-chords YouTube Clip e-chords hide all tabs e-chords go to top tab

share