Tame Impala

Elephant

Tame Impala

tabs Expert expert

by  FERNSANTANA

save to print version add songbook text version e-mail correct tuner
chordsukulelecavacokeyboardtabbassdrumsharmonicaflute Guitar Pro
close

there isn't a video lesson for this song

chords

Elephant

	  		

E-----------------| 
B-----------------| 
G-7----/-10-10----| 
D-7----/-10-10----| 
A-5----/-8--8-----| 
E-----------------| 

E---------| 
B---------| 
G----7----| 
D-5--7----| 
A-5--5----| 
E-3-------| 

E-------------------------------------------| 
B-------------------------------------------| 
G-----------------------10--10-/--7---------| 
D-7--8--7--6--7--6--5---10--10-/--7---------| 
A-7--8--7--6--7--6--5---8---8--/--5---------| 
E-5--6--5--4--5--4--3-----------------------| 

E--------------------------------------------| 
B--------------------------------------------| 
G---------------8--7-------------------------| 
D---------------8--7-------------------------| 
A-3-2-1-0-------6--5-------------------------| 
E---------3-1-0------------------------------| 

GUITAR SOLO: 

E-------------------------------------------------------| 
B--------------------------------------------------8----| 
G------7-9-7------7-9-7-10------7-10-7------7-10-7------| 
D-9-10-------9-10----------9-10--------9-10-------------| 
A-------------------------------------------------------| 
E-------------------------------------------------------| 

E---------------------------------------------| 
B---------------------------------------------| 
G---------------------------------------------| 
D-10-9----7----10-9----7-------7-8-8-10-8-7---| 
A------10---10------10---10-10----------------| 
E---------------------------------------------| 

E---------------------------------| 
B---------------------------------| 
G---------------------------------| 
D---------------------------------| 
A-7-8-10--------7-----------------| 
E---------0-5-7-------------------| 

E---------------------------------| 
B---------------------------------| 
G-10-9----7----10-9----7----------| 
D------10---10------10---10-------| 
A---------------------------------| 
E---------------------------------| 

E------------------------------------------------| 
B------------------------8-----------------------| 
G-----7-10-7------7-10-7-------------------8-5---| 
D-10-9-------10-9--------------------------8-5---| 
A----------------------------3-2-1-0-------6-7---| 
E------------------------------------3-1-0-------| 

E--------------------------------------| 
B--------------------------------------| 
G-----10----------10--------10---------| 
D-9-10---9-7--9-10---9-7-7/9-----------| 
A--------------------------------------| 
E--------------------------------------| 

E--------------------------------------| 
B--------------------------------------| 
G-----10----------10----------12-------| 
D-9-10---9-7--9-10---9-7-10/12---------| 
A--------------------------------------| 
E--------------------------------------| 

E----------------------------------------------| 
B----------------------------------------------| 
G----------------------------------------------| 
D-10-9----7----10-9----7-------7-8-8-10-8-7----| 
A------10---10------10---10-10-----------------| 
E----------------------------------------------| 

E-----------------------| 
B-----------------------| 
G-----------------------| 
D-----------------------| 
A-7-8-10--------7-------| 
E---------0-5-7---------| 

E--------------------------------------| 
B--------------------------------------| 
G-10-9----7----10-9----7-------7-10----| 
D------10---10------10---10-10---------| 
A--------------------------------------| 
E--------------------------------------| 

E-------------------------------------------------| 
B------------------------8------------------------| 
G-----7-10-7------7-10-7-------------------8-5----| 
D-10-9-------10-9--------------------------8-5----| 
A----------------------------3-2-1-0-------6-7----| 
E------------------------------------3-1-0--------|  
		  

auto scroll beats size up size down change color hide chords drawings
tab show chords e-chords YouTube Clip e-chords hide all tabs e-chords go to top tab

share