Tame Impala

Beverly Laurel

Tame Impala

tabs

by  MARCNAGEL

save to print version add songbook text version e-mail correct tuner
chordsukulelecavacokeyboardtabbassdrumsharmonicaflute Guitar Pro
close

there isn't a video lesson for this song

chords

Beverly Laurel

	  		This is my first tab, I did it mostly because no one had done it here and I felt like 
sharing it with other people, let me know if you find anything wrong with it. 

Tame Impala 
Beverly Laurel 
Lonerism 7'' Vinyl Deluxe Edition (2012) 
Tabbed by Thiago Barros 



Chords used: 


   Em     D7 
E|--------------| 
B|--8-----7-----| 
G|--9-----6-----| 
D|--9-----7-----| 
A|--7-----5-----| 
E|--------------| 






0:08 


E|------------------------7--7--9--10--12b14--12--| 
B|--------------7--8--10--------------------------| 
G|--9--9--7--9------------------------------------|               x7 
D|------------------------------------------------| 
A|------------------------------------------------| 
E|------------------------------------------------| 



1:00 


Em                      DM7                       Em 
Why do they say they don't know what's right for me? 

Em     DM7                    Em 
Hey, I know what's right for me 




1:18 

E|------------------------7--7--9--10--12b14-12------------| 
B|--------------7--8--10-----------------------------------| 
G|--9--9--7--9---------------------------------------------|        x2 
D|---------------------------------------------------------| 
A|---------------------------------------------------------| 
E|---------------------------------------------------------| 




E|------------------------7--7--9--10--------------| 
B|--------------7--8--10---------------12b14-12----| 
G|--9--9--7--9-------------------------------------| 
D|-------------------------------------------------| 
A|-------------------------------------------------| 
E|-------------------------------------------------| 



1:43 


E|-----12~ ---10~ ---7~ ---| 
B|-----12~ ---10~ ---8~ ---| 
G|-------------------------| 
D|-------------------------| 
A|-------------------------| 
E|-------------------------| 



1:52 

Em                      DM7                       Em 
Why do they say they don't know what's right for me? 

Em     DM7                    Em 
Hey, I know what's right for me 



2:10 


E|------------------------7--7--9--10--12b14-12------------| 
B|--------------7--8--10-----------------------------------| 
G|--9--9--7--9---------------------------------------------|        x2 
D|---------------------------------------------------------| 
A|---------------------------------------------------------| 
E|---------------------------------------------------------| 




2:28 


   DM7 
I know what's right 

   DM7 
I know what's right 

   DM7                   Em 
I know what's right for me 



   DM7 
I know what's right 

   DM7 
I know what's right 

   DM7                   Em       Em 
I know what's right for me, for me 



   DM7                   Em 
I know what's right for me 

   DM7                   Em 
I know what's right for me 

   DM7                   Em 
I know what's right for me 

   DM7                   Em 
I know what's right for me 


End on that Em 




Ratings are always appreciated! 
		  

Full key step upFull key step up
Half key step upHalf key step up
Half key step downHalf key step down
Full key step downFull key step down
auto scroll beats size up size down change color hide chords drawings
tab show chords e-chords YouTube Clip e-chords hide all tabs e-chords go to top tab

share