Take That

Patience (ver. 2)

Take That

tabs

by  DONGREGERS

save to print version add songbook text version e-mail correct tuner
chordsukulelecavacokeyboardtabbassdrumsharmonicaflute Guitar Pro
close

there isn't a video lesson for this song

chords

Patience (ver. 2)

	  		Patience 

is played with capo in 3rd. 


INTRO: with rd 
  
E||-----------|----------|------------|---------------------||  
B||-----------|-----6----|-------6----|-------6-------------||  
G||------3----|---3---3--|-----3---3--|-----5---5-----------||  
D||-----------|----------|------------|---3-----------------||  
A||----5------|----------|--6---------|---------------------||  
E||--3------5-|--6-------|------------|---------------------||  
  
INTRO: without rd 
  
E||-----------|-----1----|-------1----|---------------------||  
B||-----------|----------|------------|-------6-------------||  
G||------3----|---3---3--|-----3---3--|-----5---5-----------||  
D||----0------|----------|--1---------|---3-----------------||  
A||---------0-|-1--------|------------|---------------------||  
E||--3--------|----------|------------|---------------------||  
  

Gm Bb Eb F  
  
Just have a little  patience,  
Still hurting from a love I lost,   
I'm feeling your frustration,  
but in any minute all the pain will stop,  
        Ebadd9     Bb                         Ebadd9  
just hold me close inside your arms tonight,   
                   C  
don't be to hard on my emotions.  

      Gm Ebadd9 Bb  F        
Cause I,            need time,  
My heart is numb has no feeling  
So while I'm still healing  
Just try,    

and have a little patience 
I really wanna start over again  
I know you wanna be my salvation  
The one that I can always depend  
  
I'll try to be strong, believe me I'm trying to move on  
Its complicated but understand me,  
  
Cause I, need time,  
My heart is numb has no feeling  
So while I'm still healing  
                             Ab   Eb   Bb  
Just try, and have a little patience yeah  
              Ab   Eb   Bb  
Have a little patience yeah.  
          Eb            Bb/d  
Cause the scars run so deep,  
         Cm          Bb         F/a  
its been hard but I have to believe  

               Gm Ebadd9 Bb F 
have a little patience  
have a little patience  
  
Cause I, I just need time,  
My heart is numb has no feeling  
So while I'm still healing  
Just try, and have a little patience  
Have a little patience 


		  

See also:

tabs Genesis - After the Ordeal tabs Paul McCartney - Little Willow tabs Duran Duran - Ordinary World Intro tabs Toto - I'll Supply The Love tabs Paul McCartney - Blackbird tabs Toni Braxton - Unbrake My Heart
e-chords

Other versions:

tabs Guns N' Roses - Patience tabs Porches - Patience tabs Take That - Patience (intro) tabs Take That - Patience (ver. 2) tabs Guns N' Roses - Patience (ver. Luau) tabs Take That - Patience Intro
auto scroll beats size up size down change color hide chords drawings
tab show chords e-chords YouTube Clip e-chords hide all tabs e-chords go to top tab

share