T. Rex

home > T. Rex

Shock Rock Tab

T. Rex

Difficulty: nolevelnolevel

by jov%2Dcorrea

tuner correct add songbook print version text version save to e-mail
chordsukulelecavacokeyboardtabbassdrumsharmonicsflute Guitar Pro
chords

Shock Rock

	  verse 1 
  E 
e|---------|-------------|---------|----------------------------| 
B|---------|-------------|---------|----------------------------| 
G|---------|-------------|---------|----------------------------| 
D|-----2-0-|------0--2-0-|-----2-0-|--4------2--2---2-0---------| 
A|-0-2-----|--0-2--------|-0-2-----|--------------------2-------| 
E|---------|-------------|---------|----------------------------| 
    Oh baby,  pretty baby.  Oh baby,  you're my girl 

  E 
e|---------|-------------|---------|----------------------------| 
B|---------|-------------|---------|----------------------------| 
G|---------|-------------|---------|----------------------------| 
D|-----2-0-|------0--2-0-|-----2-0-|--4------2---4------2-------| 
A|-0-2-----|--0-2--------|-0-2-----|----------------------------| 
E|---------|-------------|---------|-----------------------0----| 
    Oh baby,  pretty baby.  Oh baby,  you're my, you're my girl 

  E 
e|---------|-------------|---------|----------------------------| 
B|---------|-------------|---------|----------------------------| 
G|---------|-------------|---------|----------------------------| 
D|-----2-0-|------0--2-0-|-----2-0-|--4------2--2--2-0----------| 
A|-0-2-----|--0-2--------|-0-2-----|-------------------2-0------| 
E|---------|-------------|---------|----------------------------| 

Chorus 
    C          Em/B    Am    C         D       E 
e|-----------------------------------------------------------| 
B|-----------------------------------------------------------| 
G|-----------------------------------------------------------| 
D|-----------------------------------------------------------| 
A|--3-----------2------0-----3---------5---------------------| 
E|---------------------------------------------0-------------| 
    If you know how to rock, you don't have to shock 

    C          Em/B    Am    C         D       E 
e|-----------------------------------------------------------| 
B|-----------------------------------------------------------| 
G|-----------------------------------------------------------| 
D|-----------------------------------------------------------| 
A|--3-----------2------0-----3---------5---------------------| 
E|---------------------------------------------0-------------| 
    If you know how to rock, you don't have to shock 

verse 1 
  E 
e|---------|-------------|---------|----------------------------| 
B|---------|-------------|---------|----------------------------| 
G|---------|-------------|---------|----------------------------| 
D|-----2-0-|------0--2-0-|-----2-0-|--4------2--2---2-0---------| 
A|-0-2-----|--0-2--------|-0-2-----|--------------------2-------| 
E|---------|-------------|---------|----------------------------| 
    Oh baby,  pretty baby.  Oh baby,  you're my girl 

  E 
e|---------|-------------|---------|----------------------------| 
B|---------|-------------|---------|----------------------------| 
G|---------|-------------|---------|----------------------------| 
D|-----2-0-|------0--2-0-|-----2-0-|--4------2---4------2-------| 
A|-0-2-----|--0-2--------|-0-2-----|----------------------------| 
E|---------|-------------|---------|-----------------------0----| 
    Oh baby,  pretty baby.  Oh baby,  you're my, you're my girl 

  E 
e|---------|-------------|---------|----------------------------| 
B|---------|-------------|---------|----------------------------| 
G|---------|-------------|---------|----------------------------| 
D|-----2-0-|------0--2-0-|-----2-0-|--4------2--2--2-0----------| 
A|-0-2-----|--0-2--------|-0-2-----|-------------------2-0------| 
E|---------|-------------|---------|----------------------------| 

Chorus 
    C          Em/B    Am    C         D       E 
e|-----------------------------------------------------------| 
B|-----------------------------------------------------------| 
G|-----------------------------------------------------------| 
D|-----------------------------------------------------------| 
A|--3-----------2------0-----3---------5---------------------| 
E|---------------------------------------------0-------------| 
    If you know how to rock, you don't have to shock 

    C           Em/B   Am    C         D       E 
e|-----------------------------------------------------------| 
B|-----------------------------------------------------------| 
G|-----------------------------------------------------------| 
D|-----------------------------------------------------------| 
A|--3-----------2------0-----3---------5---------------------| 
E|---------------------------------------------0-------------| 
    If you know how to rock, you don't have to shock 

Chorus 
    C           Em/B   Am    C         D       E 
e|-----------------------------------------------------------| 
B|-----------------------------------------------------------| 
G|-----------------------------------------------------------| 
D|-----------------------------------------------------------| 
A|--3-----------2------0-----3---------5---------------------| 
E|---------------------------------------------0-------------| 
    If you know how to rock, you don't have to shock 

Outro 
  E                                                       E7 
e|---------|-------------|---------|----------------------------| 
B|---------|-------------|---------|----------------------------| 
G|---------|-------------|---------|----------------------------| 
D|-----2-0-|------0--2-0-|-----2-0-|--4------2---4------2-------| 
A|-0-2-----|--0-2--------|-0-2-----|----------------------------| 
E|---------|-------------|---------|-----------------------0----| 
	  

there isn't a video lesson for this song

request
Full key step upFull key step up
Half key step upHalf key step up
Half key step downHalf key step down
Full key step downFull key step down
Search
auto scroll beats size up size down change color hide chords drawings
tab show chords e-chords YouTube Clip e-chords hide all tabs e-chords go to top tab