Sylosis

home > Sylosis

A Dying Vine Tab

Sylosis

Difficulty: nolevelnolevel

by abelamin

tuner correct add songbook print version text version save to e-mail
chordsukulelecavacokeyboardtabbassdrumsharmonicsflute Guitar Pro
chords

A Dying Vine

  		

Intro 
Both guitars 
|---------------------------------|---------------------------------| 
|---------------------------------|---------------------------------| 
|---------------------------------|---------------------------------| 
|-7---------------2---------------|-7---------------2-------3-------| 
|-7---------------2---------------|-7---------------2-------3-------| 
|-5-------6~~-1~~-0---------------|-5-------6~~-1~~-0-------1-------| 

|---------------------------------|---------------------------------| 
|---------------------------------|---------------------------------| 
|---------------------------------|---------------------------------| 
|-7---------------2---------------|-7---------------2---------------| 
|-7---------------2---------------|-7---------------2---------------| 
|-5-------6~~-1~~-0---------------|-5-------6~~-1~~-0---------------| 

 


Verse 1 part 1 
Both guitars 
|---------------------------------|---------------------------------| 
|---------------------------------|---------------------------------| 
|---------------------------------|---------------------------------| 
|---------------------------------|---------------------------------| 
|-2---------------3---2-----------|-2-------------------------------| 
|-0---0-0-0-0-0-0-1---0---0-0-0-0-|-0-------------------------------| 

|---------------------------------|-1-------------------------------| 
|---------------------------------|-3---------------1---------------| 
|---------------------------------|-2---------------2---------------| 
|---------------------------------|-0---------------2---------------| 
|-2---------------3---2-----------|-----------------0---------------| 
|-0---0-0-0-0-0-0-1---0---0-0-0-0-|---------------------------------| 

|---------------------------------|---------------------------------| 
|---------------------------------|---------------------------------| 
|---------------------------------|---------------------------------| 
|---------------------------------|---------------------------------| 
|-2---------------3---2-----------|-2-------------------------------| 
|-0---0-0-0-0-0-0-1---0---0-0-0-0-|-0-------------------------------| 

|---------------------------------|---------------------------------| 
|---------------------------------|---------------------------------| 
|---------------------------------|---------------------------------| 
|---------------------------------|---------------------------------| 
|-2---------------3---2-----------|-2-------------------------------| 
|-0---0-0-0-0-0-0-1---0---0-0-0-0-|-0-------------------------------| 

 


Verse 1 part 2 
Both guitars 
|---------------------------------|---------------------------------| 
|---------------------------------|---------------------------------| 
|---------------------------------|---------------------------------| 
|-----------------9-/10-----------|---------------------------------| 
|-2---------------7---8-----------|---------------------------------| 
|-0---0-0-0-0-0-0---------0-0-0-0-|-1p0-0-0-0-0-0-0-3p0-0-0-0-0-0-0-| 

|---------------------------------|---------------------------------| 
|---------------------------------|---------------------------------| 
|---------------------------------|---------------------------------| 
|-----------------9-/10-----------|-----------------9---------------| 
|-2---------------7---8-----------|-7---7-7-7---7-------8---7---8---| 
|-0---0-0-0-0-0-0---------0-0-0-0-|---------------------------------| 

|---------------------------------|---------------------------------| 
|---------------------------------|---------------------------------| 
|---------------------------------|---------------------------------| 
|-----------------9-/10-----------|---------------------------------| 
|-2---------------7---8-----------|---------------------------------| 
|-0---0-0-0-0-0-0---------0-0-0-0-|-1p0-0-0-0-0-0-0-3p0-0-0-0-0-0-0-| 

|---------------------------------| 
|---------------------------------| 
|---------------------------------| 
|-----------3-7-3---3-------------| 
|-------3-7-------7---7-3-7-3---3-| 
|-0-3-7-----------------------7---| 

 


Main Verse 
Both guitars 
||---------------------------------|---------------------------------| 
|o---------------------------------|---------------------------------| 
||---------------------------------|---------------------------------| 
||-----------------9-/10-----------|---------------------------------| 
|o-2---------------7---8-----------|---------------------------------| 
||-0---0-0-0-0-0-0---------0-0-0-0-|-1p0-0-0-0-0-0-0-3p0-0-0-0-0-0-0-| 

|---------------------------------|---------------------------------| 
|---------------------------------|---------------------------------| 
|---------------------------------|---------------------------------| 
|-----------------9-/10-----------|-----------------9---------------| 
|-2---------------7---8-----------|-7---7-7-7---7-------8---7---8---| 
|-0---0-0-0-0-0-0---------0-0-0-0-|---------------------------------| 

|---------------------------------|---------------------------------|| 
|---------------------------------|---------------------------------o| 
|---------------------------------|---------------------------------|| 
|-----------------9-/10-----------|---------------------------------|| 
|-2---------------7---8-----------|---------------------------------o| 
|-0---0-0-0-0-0-0---------0-0-0-0-|-1p0-0-0-0-0-0-0-3p0-0-0-0-0-0-0-|| 

1st ending 
|---------------------------------|-1-------------------------------| 
|---------------------------------|-3---------------1---------------| 
|---------------------------------|-2---------------2---------------| 
|-----------------9-/10-----------|-0---------------2---------------| 
|-2---------------7-/-8-----------|-----------------0---------------| 
|-0---0-0-0-0-0-0---------0-0-0-0-|---------------------------------| 

2nd ending 
|---------------------------------|---------------------------------| 
|---------------------------------|---------------------------------| 
|---------------------------------|---------------------------------| 
|-----------------9-/10-----------|-2-------------------------------| 
|-2---------------7-/-8-----------|-2-------------------------------| 
|-0---0-0-0-0-0-0---------0-0-0-0-|-0-------------------------------| 

 


Verse 2 
Both guitars 
|---------------------------------|---------------------------------| 
|---------------------------------|---------------------------------| 
|---------------------------------|---------------------------------| 
|-----------3-7-3---3-------------|-------------2---------------2---| 
|-------3-7-------7---7-3-7-3---3-|-------------2---------------2---| 
|-0-3-7-----------------------7---|-000-000-000-0---000-000-000-0---| 

|---------------------------------|---------------------------------| 
|---------------------------------|---------------------------------| 
|---------------------------------|---------------------------------| 
|-----------3-7-3---3-------------|-------------2-------------------| 
|-------3-7-------7---7-3-7-3---3-|-------------2-------------------| 
|-0-3-7-----------------------7---|-000-000-000-0-------------------| 

 


Solo 1 
Guitar 1 (Lead) 
              T                                 T 
|-------8h12h17p12p8-----8h12p8----------10h13h18p13p10------10h13p10--| 
|-----10------------10-10--------------11--------------11--11----------| 
|----9----------------9--------------10------------------10------------| 
|--10------------------------------12----------------------------------| 
|12------------------------------13------------------------------------| 
|----------------------------------------------------------------------| 

|---------------------------------| 
|---------------------------------| 
|-9~~~~~~~~~~~~-10-7~~~~~~~~~~~~~-| 
|---------------------------------| 
|---------------------------------| 
|---------------------------------| 

   T     T     T     T     T     T     T     T 
|-17p13h17p13h17p13h17p12h17p12h17p12h17p10h17p10-| 
|-------------------------------------------------| 
|-------------------------------------------------| 
|-------------------------------------------------| 
|-------------------------------------------------| 
|-------------------------------------------------| 
   T     T    T    T    T     T     T     T 
|-17p10h17p8h17p8h17p8h17p10h17p10h17p12h17p12-| 
|----------------------------------------------| 
|----------------------------------------------| 
|----------------------------------------------| 
|----------------------------------------------| 
|----------------------------------------------| 

|---------------------------------------------|-------| 
|-12BU(13)-(12)-10-12-13-15-------------------|-------| 
|---------------------------10~~~~~~----------|-9~~~~-| 
|------------------------------------10~~~~~~-|-------| 
|---------------------------------------------|-------| 
|---------------------------------------------|-------| 

Guitar 2 (Rhythm) 
|---------------------------------|---------------------------------| 
|---------------------------------|---------------------------------| 
|---------------------------------|---------------------------------| 
|---------------------------------|-2-2-2-2-2-2-2-2-2-2-2-2-2-2-2-2-| 
|---------------------------------|---------------------------------| 
|-5-5-5-5-5-5-5-5-6-6-6-6-1-1-1-1-|---------------------------------| 

|---------------------------------|-----------------1---------------| 
|---------------------------------|-----------------3-------1-------| 
|---------------------------------|-----------------2-------2-------| 
|---------------------------------|-----------------0-------2-------| 
|---------------------------------|-------------------------0-------| 
|-5-5-5-5-5-5-5-5-6-6-6-6-1-1-1-1-|-0-0-0-0-0-0-0-0-----------------| 

 


Repeat Main Verse 

Repeat Verse 2 

 


Harmony Verse 1 
Guitar 1 
||-------------------------------------------------|| 
|o-------------------------------------------------o| 
||----------------------------------------------12-|| 
||----------12-------------15----14----12-14-15----|| 
|o-12-13-15----15-13-12-13----13----13-------------o| 
||-------------------------------------------------|| 
| 
|Guitar 2 
||----------------------------------------------15-|| 
|o----------15-------------18----17----15-17-18----o| 
||-14-15-17----17-15-14-15----15----15-------------|| 
||-------------------------------------------------|| 
|o-------------------------------------------------o| 
||-------------------------------------------------|| 

1st & 3rd ending 
Guitar 1 
|----------------------------------------------------| 
|----------------------------------------------------| 
|-------------12----------14----------14h15p14-------| 
|-14-15-12-14----14-12-14----14-12-14----------17-15-| 
|----------------------------------------------------| 
|----------------------------------------------------| 
| 
|Guitar 2 
|-------------15----------17----------17h18p17-------| 
|-17-18-15-17----17-15-17----17-15-17----------20-18-| 
|----------------------------------------------------| 
|----------------------------------------------------| 
|----------------------------------------------------| 
|----------------------------------------------------| 

2nd ending 
Guitar 1 
|-------------------------------------------------| 
|-------------------------------------------------| 
|-15-14-12-17-15-14-12-14----12-------------------| 
|-------------------------15----14-15-12-14-------| 
|-------------------------------------------15-17-| 
|-------------------------------------------------| 
| 
|Guitar 2 
|-18-17-15-20-18-17-15-17----15-------------------| 
|-------------------------18----17-18-15-17-------| 
|-------------------------------------------17-19-| 
|-------------------------------------------------| 
|-------------------------------------------------| 
|-------------------------------------------------| 

4th ending 
Guitar 1 
|-------------------------------------------------| 
|-------------------------------------------------| 
|-15-14-12-17-15-14-12-14----12-------------------| 
|-------------------------15----14~~~~~~~~~~~~~~~-| 
|-------------------------------------------------| 
|-------------------------------------------------| 
| 
|Guitar 2 
|-18-17-15-20-18-17-15-17----15-------------------| 
|-------------------------18----17~~~~~~~~~~~~~~~-| 
|-------------------------------------------------| 
|-------------------------------------------------| 
|-------------------------------------------------| 
|-------------------------------------------------| 

 


Verse 3 
Both guitars 
  PM--------------|  PM-|  PM-|  PM 
||---------------------------------| 
|o---------------------------------| 
||---------------------------------| 
||---------------------------------| 
|o-7-7-7-7-8-8-3-3-2-----2-----2---| 
||-5-5-5-5-6-6-1-1-0-0-0-0-0-0-0-0-| 

 PM--------------| PM    PM 
|---------------------------------|| 
|---------------------------------o| 
|---------------------------------|| 
|-----------------9--10\7---9\5~~-|| 
|-7-7-7-7-8-8-3-3-7---8\5---7\3~~-o| 
|-5-5-5-5-6-6-1-1---0-----0-------|| 

 


Harmony Verse 2 
Guitar 2 (Rhythm) 
  PM--------------|  PM-|  PM-|  PM 
||---------------------------------| 
|o---------------------------------| 
||---------------------------------| 
||---------------------------------| 
|o-7-7-7-7-8-8-3-3-2-----2-----2---| 
||-5-5-5-5-6-6-1-1-0-0-0-0-0-0-0-0-| 

 PM--------------| PM    PM 
|---------------------------------|| 
|---------------------------------o| 
|---------------------------------|| 
|-----------------9--10\7---9\5~~-|| 
|-7-7-7-7-8-8-3-3-7---8\5---7\3~~-o| 
|-5-5-5-5-6-6-1-1---0-----0-------|| 

Guitar 1 (Lead) 
|---------------------------------------| 
|---------------------------------------| 
|-----------5-9~~~~-7BU(9)(7)-5-4-------| 
|-------7~~-----------------------5-----| 
|-----7-----------------------------5~~-| 
|-5-8-----------------------------------| 
| 
|Guitar 3 (Harmony) 
|----------------------------------------------| 
|----------------------------------------------| 
|--------------9-12~~~~-10BU(12)(10)-9-7-------| 
|---------10~~---------------------------9-----| 
|------10----------------------------------8~~-| 
|-8-12-----------------------------------------| 

|---------------------------------------| 
|---------------------------------------| 
|-----------5-9~~~~-7BU(9)(7)-5-4~~~~~~-| 
|-------7~~-----------------------------| 
|-----7---------------------------------| 
|-5-8-----------------------------------| 
| 
|Guitar 3 (Harmony) 
|----------------------------------------------| 
|----------------------------------------------| 
|--------------9-12~~~~-10BU(12)(10)-9-7~~~~~~-| 
|---------10~~---------------------------------| 
|------10--------------------------------------| 
|-8-12-----------------------------------------| 

 


Pre-Breakdown Verse 
Both guitars 
|---------------------------------|---------------------------------| 
|---------------------------------|---------------------------------| 
|---------------------------------|---------------------------------| 
|-7---------------2---------------|-7---------------2-------3-------| 
|-7---------------2---------------|-7---------------2-------3-------| 
|-5-------6~~-1~~-0---------------|-5-------6~~-1~~-0-------1-------| 

                                                    PM-------------| 
|---------------------------------|---------------------------------| 
|---------------------------------|---------------------------------| 
|---------------------------------|---------------------------------| 
|-7---------------2---------------|-7-------------------------------| 
|-7---------------2---------------|-7---------------2-2-2-2-2-2-2-2-| 
|-5-------6~~-1~~-0---------------|-5-------6~~-1~~-0-0-0-0-0-0-0-0-| 

 


Breakdown 
Both guitars 
||-----------------|-----------------|-----------------|-----------------| 
|O-----------------|-----------------|-----------------|-----------------| 
||-----------------|-----------------|-----------------|-----------------| 
||-2-------------3-|-(3)-------------|-7-------------7-|-(7)-------------| 
|O-0-------------1-|-(1)-------------|-5-------------7-|-(7)-------------| 
||-0-------------1-|-(1)-------------|-5-------------5-|-(5)-------------| 

|-----------------|-----------------|-----------------|-----------------|| 
|-----------------|-----------------|-----------------|-----------------O| 
|-----------------|-----------------|-----------------|-----------------|| 
|-3---------------|-5-------3-------|-2-------------3-|-(3)-------------|| 
|-1---------------|-5-------3-------|-3-------------1-|-(1)-----1-1-1-1-O| 
|-1---------------|-3-------1-------|-0-------------1-|-(1)-----1-1-1-1-|| 

 


Faster Breakdown 
|-----------------|-----------------|-----------------|-----------------| 
|-----------------|-----------------|-----------------|-----------------| 
|-----------------|-----------------|-----------------|-----------------| 
|-2-2-2-2-2-2-2-3-|-3-3-3-3-3-3-3-3-|-7-7-7-7-7-7-7-7-|-7-7-7-7-7-7-7-7-| 
|-0-0-0-0-0-0-0-1-|-1-1-1-1-1-1-1-1-|-5-5-5-5-5-5-5-7-|-7-7-7-7-7-7-7-7-| 
|-0-0-0-0-0-0-0-1-|-1-1-1-1-1-1-1-1-|-5-5-5-5-5-5-5-5-|-5-5-5-5-5-5-5-5-| 

|-----------------|-----------------|-----------------|-----------------| 
|-----------------|-----------------|-----------------|-----------------| 
|-----------------|-----------------|-----------------|-----------------| 
|-3-3-3-3-3-3-3-3-|-5-5-5-5-3-3-3-3-|-2-2-2-2-2-2-2-3-|-3-3-3-3-3-3-3-3-| 
|-1-1-1-1-1-1-1-1-|-5-5-5-5-3-3-3-3-|-3-3-3-3-3-3-3-1-|-1-1-1-1-1-1-1-1-| 
|-1-1-1-1-1-1-1-1-|-3-3-3-3-1-1-1-1-|-0-0-0-0-0-0-0-1-|-1-1-1-1-1-1-1-1-| 

 


Solo 2 part 1 
Guitar 2 (Rhythm) 
|-----------------|-----------------|-----------------|-----------------| 
|-----------------|-----------------|-----------------|-----------------| 
|-----------------|-----------------|-----------------|-----------------| 
|-2-------------3-|-(3)-------------|-7-------------7-|-(7)-------------| 
|-0-------------1-|-(1)-------------|-5-------------7-|-(7)-------------| 
|-0-------------1-|-(1)-------------|-5-------------5-|-(5)-------------| 

|-----------------|-----------------|-----------------|-----------------| 
|-----------------|-----------------|-----------------|-----------------| 
|-----------------|-----------------|-----------------|-----------------| 
|-3---------------|-5-------3-------|-2-------------3-|-(3)-------------| 
|-1---------------|-5-------3-------|-3-------------1-|-(1)-----1-1-1-1-| 
|-1---------------|-3-------1-------|-0-------------1-|-(1)-----1-1-1-1-| 

Guitar 1 (Lead) 
|------------------------------------| 
|------------------------------------| 
|----------------9~~~~-10\7~~~-/12~~-| 
|---------7-9-10---------------------| 
|-------7----------------------------| 
|---5-8------------------------------| 

|--------------------------------------------| 
|---------------------------13~~~~~~~~~~~~~~-| 
|-10-----9BU(10)(9)------12~~~-12-12~~~~~~~~-| 
|-------------------10-9~~~~~~~~~~~~~~~~~~~~-| 
|--------------------------------------------| 
|--------------------------------------------| 

Guitar 1 
|--------------------------------------| 
|--------------------------------------| 
|--------------------------------------| 
|-----------------7~~~~-5h7p5----------| 
|-5~~~~~~~~-7~~-8-------------8~~~~-10-| 
|--------------------------------------| 
| 
|Guitar 3 
|--------------------------------------| 
|--------------------------------------| 
|--------------------------------------| 
|----------------10~~~~-8h10p8-7~~~~---| 
|-8~~~~~~~~----------------------------| 
|--------------------------------------| 

|--------------------------------------| 
|------------11/13~~~~~~~~~~~~~~~~~~~~-| 
|------------------14~~~~~~~~~~~~~~~~~-| 
|---------------------15~~~~~~~~~~~~~~-| 
|-10~~~~~~~~---------------------------| 
|--------------------------------------| 

 


Solo 2 part 2 
Guitar 2 (Rhythm) 
|-----------------|-----------------|-----------------|-----------------| 
|-----------------|-----------------|-----------------|-----------------| 
|-----------------|-----------------|-----------------|-----------------| 
|-2-2-2-2-2-2-2-3-|-3-3-3-3-3-3-3-3-|-7-7-7-7-7-7-7-7-|-7-7-7-7-7-7-7-7-| 
|-0-0-0-0-0-0-0-1-|-1-1-1-1-1-1-1-1-|-5-5-5-5-5-5-5-7-|-7-7-7-7-7-7-7-7-| 
|-0-0-0-0-0-0-0-1-|-1-1-1-1-1-1-1-1-|-5-5-5-5-5-5-5-5-|-5-5-5-5-5-5-5-5-| 

|-----------------|-----------------|-----------------|-----------------| 
|-----------------|-----------------|-----------------|-----------------| 
|-----------------|-----------------|-----------------|-----------------| 
|-3-3-3-3-3-3-3-3-|-8-8-8-8-8-8-8-8-|-7---------------|-7---------------| 
|-3-3-3-3-3-3-3-3-|-8-8-8-8-8-8-8-8-|-5---------------|-5---------------| 
|-1-1-1-1-1-1-1-1-|-6-6-6-6-6-6-6-6-|-5---------------|-5---------------| 

Guitar 1 (Lead) 
|-------------------------------------------| 
|---------------------17~~~~-18-15~~~-/20~~-| 
|-14~~-------14-16-17-----------------------| 
|---------14--------------------------------| 
|------15-----------------------------------| 
|-------------------------------------------| 

|------17--------------------------------------15~~~~~~~~-| 
|-18~~----18-17-18-13-17------------------13~~~~~~~~~~~~~-| 
|------------------------15-17-14-15-14~~~~~~~~~~~~~~~~~~-| 
|---------------------------------------------------------| 
|---------------------------------------------------------| 
|---------------------------------------------------------| 

| 
|-------------------------------------------------15~~~-| 
|-------------5~~~~~~-7~~~~~~-/14---12~~~~~~~~-14~~~-14-| 
|---------5h7-------------------------------------------| 
|-------5-----------------------------------------------| 
|-8-5-8-------------------------------------------------| 

|-12~~~~~~~~~~~~-13\12~~~~~~~~~~~~~~~~-| 
|----------------------15~~~~~~~~~~~~~-| 
|-------------------------14~~~~~~~~~~-| 
|--------------------------------------| 
|--------------------------------------| 
|--------------------------------------| 

 


Verse 4 
Guitar 1 
|---------------------------------| 
|---------------------------------| 
|---------------------------------| 
|-7-------8---3---2---------------| 
|-7-------8---3---2---------------| 
|-5-------6---1---0---------------| 
| 
|Guitar 2 
| Tr-----------------------------| 
|---------------------------------| 
|---------------------------------| 
|---------------------------------| 
|-----------------2---------------| 
|---------------------------------| 
|-5-------6---1-------------------| 

Guitar 1 
|-----------------|---------------------------------| 
|-----------------|---------------------------------| 
|-----------------|---------------------------------| 
|-7-------8---3---|-2-------------------------------| 
|-7-------8---3---|-2-------------------------------| 
|-5-------6---1---|-0---------------000-0-000-0-000-| 
| 
|Guitar 2 
| Tr-------------| 
|-----------------|---------------------------------| 
|-----------------|---------------------------------| 
|-----------------|---------------------------------| 
|-----------------|-2-------------------------------| 
|-----------------|-2-------------------------------| 
|-5-------6---1---|-0---------------000-0-000-0-000-| 

 


Verse 4 Variation 
Both guitars 
|---------------------------------| 
|---------------------------------| 
|---------------------------------| 
|---------------------------------| 
|---------------------------------| 
|-5-5-5-5-5-5-5-5-6-6-6-6-1-1-1-1-| 

|---------------------------------| 
|---------------------------------| 
|---------------------------------| 
|-2-2-2-2-2-2-2-2-2-2-2-2-2-2-2-2-| 
|---------------------------------| 
|---------------------------------| 

|---------------------------------| 
|---------------------------------| 
|---------------------------------| 
|---------------------------------| 
|---------------------------------| 
|-5-5-5-5-5-5-5-5-6-6-6-6-1-1-1-1-| 

|---------------------------------| 
|---------------------------------| 
|---------------------------------| 
|---------------------------------| 
|---------------------------------| 
|-0-0-0-0-0-0-0-0-0-0-0-/12\------| 

 


Outro 
Both guitars 
|---------------------------------|---------------------------------| 
|---------------------------------|---------------------------------| 
|---------------------------------|---------------------------------| 
|-7---------------2---------------|-7---------------2-------3-------| 
|-7---------------2---------------|-7---------------2-------3-------| 
|-5-------6~~-1~~-0---------------|-5-------6~~-1~~-0-------1-------| 

|---------------------------------|---------------------------------| 
|---------------------------------|---------------------------------| 
|---------------------------------|---------------------------------| 
|-7---------------2---------------|-7---------------2---------------| 
|-7---------------2---------------|-7---------------2---------------| 
|-5-------6~~-1~~-0---------------|-5-------6~~-1~~-0---------------| 

|---------------------------------|---| 
|---------------------------------|---| 
|---------------------------------|---| 
|-----------3-7-3---3-------------|-2-| 
|-------3-7-------7---7-3-7-3---3-|-2-| 
|-0-3-7-----------------------7---|-0-| 

 


Acoustic Outro 
Guitar 2 (Rhythm) 
|---------------------------------|-------------------------------------| 
|---------1-0-1---------3---------|-------5-6-5h6p5---------------------| 
|-----2---------------3-----------|-----7-----------7---------5---------| 
|---2---2-----------3-------------|---7---------------7-----7-----------| 
|-0-------------0-1---------------|-5---------------------7-------------| 
|---------------------------------|---------------------5---------------| 

|---------------------------------|---------------------------------| 
|---------------------------------|---------------------------------| 
|-----------------------------2---|-----0---------------3-----------| 
|-----8---10----------5---------3-|-------2-----------3-------------| 
|---8---8-----------5---5---3-----|---3-------------1---------------| 
|-6-------------6-3-------1-------|-0-------------------------------| 

Guitar 1 (Lead) 
|---------------------------------|---------------------------------| 
|---------------------------------|---------------------------------| 
|----------------9~~-10-7~~-/12~~-|-10~~~~-9-10-9h10p9--------------| 
|---------7-9-10------------------|--------------------10-9-10~~~~~-| 
|-------7-------------------------|---------------------------------| 
|---5-8---------------------------|---------------------------------| 

|---------8-------------------5---|-----3---------------------------| 
|-----11----11--------8---------6-|-------5-------8~~-10-6~~~~~~~~~-| 
|---10--10----10----7---7---5-----|---5-----------------------------| 
|-8-------------8-5-------3-------|-2-------------------------------| 
|---------------------------------|---------------------------------| 
|---------------------------------|---------------------------------| 

Guitar 3 (Harmony) 
|------------------------------------|------------------------------------| 
|------------------------------------|------------------------------------| 
|-----------------12~~-14-10~~-/15~~-|-14~~~~-12-14-12h14p12--------------| 
|---------10-12-14-------------------|----------------------14-12-14~~~~~-| 
|-------10---------------------------|------------------------------------| 
|---8-12-----------------------------|------------------------------------| 

|---------8-------------------5---|-----3---------6~~-8-5~~~~~~~~~~-| 
|-----11----11--------8---------6-|-------5-------------------------| 
|---10--10----10----7---7---5-----|---5-----------------------------| 
|-8-------------8-5-------3-------|-2-------------------------------| 
|---------------------------------|---------------------------------| 
|---------------------------------|---------------------------------| 
 
	  

Search Paypal
auto scroll beats size up size down change color hide chords drawings
tab show chords e-chords YouTube Clip e-chords hide all tabs e-chords go to top tab