Survivor

home > Survivor

Is This Love Tab

Survivor

Difficulty: nolevelnolevel

by LINEKERS

tuner correct add songbook print version text version save to e-mail
chordsukulelecavacokeyboardtabbassdrumsharmonicsflute Guitar Pro
chords

Is This Love

  		

0:31 Now, I must admit... 
    P.M. 
E-----------------| 
B-----------------| 
G---8--9--9-8-9---| 
D-----------------| 
A-----------------| 
E-----------------| 

0:43 I need to prove to myself... 
    P.M. 
E-----------| 
B-----------| 
G---7-------| 
D---7---9---| 
A---5---9---| 
E-------7---| 

0:51 is this love...        1:04 
    P.M. 
E------------|              E-------7| 
B------------|              B-----5--| 
G-----------6|              G---6----| 
D---7---9---6|              D--------| 
A---7---9---4|              A--------| 
E---5---7----|              E--------| 

1:09 so many nights... 
    P.M.        P.M.        P.M. 
E-------------|-----------|-----------------| 
B-------------|-----------|-----------------| 
G-------------|-----------|-----------------| 
D-----------6-|-----------|---------6-------| 
A---7---9---4-|-7---9---6-|-7---9---4---7---| 
E---5---7-----|-5---7---4-|-5---7-------5---| 

E---------|---------------------------|-----| 
B---------|---------------------------|-----| 
G---------|---------------------------|-----| 
D-------9-|---------6---------------9-|-----| 
A---9---7-|-7---9---4---6---7---9---7-|-7---| 
E---7-----|-5---7-------4---5---7-----|-5---| 

E------------| 
B------------| 
G------------| 
D-------6----| 
A---9---4---6| 
E---7-------4| 

2:00 I've heard those... 

E-----|-------|---------------|-----------| 
B-----|-------|---------------|-----------| 
G---7-|-----7-|-------------9-|-----------| 
D---7-|-7---7-|-7---6---7---9-|-2---------| 
A---5-|-7---5-|-5---4---5---7-|-2-------7-| 
E-----|-5-----|-----------------0---5-----| 

                P.M. 
E-----------|-------| 
B-----------|-------| 
G-------7---|-------| 
D-------7---|---6---| 
A---4---5---|---6---| 
E-----------|---4---| 

2:24 guitar solo 

E-----------19v---16h17h16-17--16--14-12-| 
B----------------------------------------| 
G---16/18--------------------------------| 
D----------------------------------------| 
A----------------------------------------| 
E----------------------------------------| 

E---12/14-12-12v-------------------------| 
B------------------16b-------------------| 
G-----------------------18-18-16-18v-----| 
D----------------------------------------| 
A----------------------------------------| 
E----------------------------------------| 

E-------21-19--21------------------------| 
B-----------------19--21-17v---17-16-14--| 
G---18-----------------------------------| 
D----------------------------------------| 
A----------------------------------------| 
E----------------------------------------| 

E--------------------------------8--------| 
B---12------9-----------------------------| 
G--------11---9-8-11-9--8------8----------| 
D-------------------------11-9------------| 
A-----------------------------------------| 
E-----------------------------------------| 

2:41 is this love...  2:54 

E------------------   E-------8---| 
B------------------   B-----6-----| 
G------------7-----   G---7-------| 
D---8---10---7-----   D-----------| 
A---8---10---5-----   A-----------| 
E---6---8----------   E-----------| 

3:14 ending solo 

E-----------------------------8w----13-12-| 
B-----------------------------------------| 
G-----------------------------------------| 
D---5v----5-5/7--7--7/5-5v----------------| 
A-----------------------------------------| 
E-----------------------------------------| 

E---10-8------------------------------8w-| 
B--------8-10----------------------------| 
G-------------10-9-9-10-9-7-9-7-5--5-----| 
D----------------------------------------| 
A----------------------------------------| 
E----------------------------------------| 

E---------------------------------8w---| 
B--------------------------------------| 
G---5--5-5/7--7--7/5-5--5/7/5----------| 
D-----------------------------7--------| 
A--------------------------------------| 
E--------------------------------------| 

END 

P.M. = palm mute  
   / = slide  
   V = vibrato  
   b = bend  
   w = whammy bar 

R.I.P. Jimi Jamison 1951-2014 

Follow me on ig @khairewarren 
	  

Search Paypal
auto scroll beats size up size down change color hide chords drawings
tab show chords e-chords YouTube Clip e-chords hide all tabs e-chords go to top tab