Supergrass

Rebel In You

Supergrass

tabs Advanced advanced

by  FERNSANTANA

save to print version add songbook text version e-mail correct tuner
chordsukulelecavacokeyboardtabbassdrumsharmonicaflute Guitar Pro
close

there isn't a video lesson for this song

chords

Rebel In You

	  		intro: 

|--------------------|---------------------| 
|--------------------|---------------10----| 
|-------9-10---------|--------9-10-9-------| 2x 
|-10-9--------7-12---|--10-9---------------|  
|--------------------|---------------------| 
|--------------------|---------------------| 

solo: 

|------------------------------------------------------------------| 
|------------------------------------------------------------------| 
|------------------------------------------------------------------| 
|---------------------------12---------------------12----12-9-12---|  
|--8-10--------12-10-12-10-----10-10/12--13-12-10-----10-----------| 
|-------12-10------------------------------------------------------| 

|----------------------------------------------------------------------------| 
|----------------------------------------------------------------------------| 
|-----------------------------------------------12---------------------------| 
|-----------------------------------12-12-----9----9-12------------9-12--14--|  
|--13-13-13-13-12--12-12-10--10-10-----------------------10/11/10------------| 
|----------------------------------------------------------------------------| 

|---------------------------------------------------------------------------------------| 
|---------------------------------------------------------------------------------------| 
|---------------------------------------------------------------------------------------| 
|---------------------------------------------------------------------------------------| 
|-----------------12-10-12-10-8--8-10--10/11--11/13--13/15------------------------------| 
|--12-12-12-12-10--------------------------------------------10-12-15-10-12-15-10-12----| 
		  

See also:

tabs Deftones - Change tabs Velvet Revolver - Fall to pieces tabs Darkness - I Believe in a Thing Called Love tabs Lifehouse - Blind Acoustic tabs Queens Of The Stone Age - Go with the Flow tabs Black Crowes - Remedy
e-chords

Other versions:

tabs Supergrass - Rebel In You
auto scroll beats size up size down change color hide chords drawings
tab show chords e-chords YouTube Clip e-chords hide all tabs e-chords go to top tab

share