Sunk Loto

home > Sunk Loto

Shiver Tab

Sunk Loto

Difficulty: nolevelnolevel

tuner correct add songbook print version text version save to e-mail
chordsukulelecavacokeyboardtabbassdrumsharmonicsflute Guitar Pro
chords

Shiver

  		Tabbed By: Shaun Fitzsummons 
Email: [email protected] 
Tuning (low to high) : (C, G, C, F, A, D)  
 
* - mute strings  
(3) - harmonics 
/ - slide up  
\ - slide down  
 
Riff 1    
 
D||------------------------------||  
A||------------------------------||  
F||------------------------------||  
C||------------------------------|| play palm muted (8 times)   
G||------------------------------||  
C||-3--7-7-3-7-0-1-1-1-5-5-5-----||  
 
Riff 2  
 
D||------------------------------||  
A||------------------------------||  
F||------------------------------||  
C||-3--7-7-3-7-0-1-1-1-5-5-5-----|| play 4 times   
G||-3--7-7-3-7-0-1-1-1-5-5-5-----||  
C||-3--7-7-3-7-0-1-1-1-5-5-5-----||  
 
Riff 3  
 
D||-----------------------------------------------------------------------||  
A||-----------------------------------------------------------------------||  
F||-7---------------7----------------------7------------------------------||  
C||------------7-5--------------------7-5------------7-5---7-7-0-0-1-1-8--||   
G||-5-0-0-0-0--5-3--5-(7)-(7)-(6)-(5)-5-3--5-0-0-0-0-5-3---5-5-0-0-1-1-6--||  
C||---0-0-0-0---------(5)-(5)-(4)-(3)--------0-0-0-0-----------0-0-1-1----||  
 
in this part where there is no guitars just slide the edge of your pick  
down the top string (above the last pickup to get that wierd sound)  
 
Bridge 1  
 
D||----------||  
A||----------||  
F||----------||  
C||----------|| play once  
G||----------||  
C||---0-1----||  
 
Riff 4  
 
D||----------------------------------------------------------------------------- 
A||----------------------------------------------------------------------------- 
F||-7---------------7----------------------7------------------------------------ 
C||------------7-5--------------------7-5------------7-5--3--3-3-3-3--1--1-1-1-1 
G||-5-0-0-0-0--5-3--5-(7)-(7)-(6)-(5)-5-3--5-0-0-0-0-5-3--3--3-3-3-3--1--1-1-1-1 
C||---0-0-0-0---------(5)-(5)-(4)-(3)--------0-0-0-0------3--3-3-3-3--1--1-1-1-1  
 
Riff 5  
 
D||------------------------------------------------------||  
A||------------------------------------------------------||  
F||------------------------------------------------------||  
C||-0--0--6--6--3--3-3--*-*-5-6--0--0--6--6--3--3--1--1--|| Play 2 times  
G||-0--0--6--6--3--3-3--*-*-5-6--0--0--6--6--3--3--1--1--||  
C||-0--0--6--6--3--3-3--*-*-5-6--0--0--6--6--3--3--1--1--||  
 
Bridge 2  
 
D||---------||  
A||---------||  
F||---------||  
C||---0-----|| play once  
G||---0-----||  
C||---0-----||  
 
do the scratchy thing on the strings again  
 
 
Play Bridge 1  (once)  
 
Play Riff 4 (2 times)  
 
Play Riff 5 (2 times)  
 
Play Bridge 2 (2 times)  
 
Riff 6 (play palm muted)  
 
D||------------------------------------------||  
A||------------------------------------------||  
F||------------------------------------------||  
C||------------------------------------------|| play (7 times)  
G||--5-5-5-----------------------------------||  
C||--------3-3-3--0-0-0--9-9-9--6-6--2-2-----||  
 
D||----------------------------------------||  
A||----------------------------------------||  
F||----------------------------------------||  
C||----------------------------------------|| play once   
G||-5-5-5----------------------------------|| only play the first bit muted though  
C||-------3-3-3--0-0-0---9-9-9-6-6-2-2-----||  
  |<----palm muted--->|  
 
Play Riff 3  (2 times)  
 
Play Riff 5  (4 times) 

	  

Search Paypal
auto scroll beats size up size down change color hide chords drawings
tab show chords e-chords YouTube Clip e-chords hide all tabs e-chords go to top tab