Sunk Loto

Porcelain Buddah

Sunk Loto

tabs

save to print version add songbook text version e-mail correct tuner
chordsukulelecavacokeyboardtabbassdrumsharmonicaflute Guitar Pro
close

there isn't a video lesson for this song

chords

Porcelain Buddah

	  		Tabbed by Alec Denning 
for any inquiries or suggestions email me at   [email protected] 
 
Tuning (low to high)  (C#,G#,C#,F#,A#,C#) (thats half a step down and  
dropped into C#) 
 
(number)  or called harmonics) - put ur finger on the strings above that  
fret number but not touching the fingerboard 
		(ie: just dont push the strings down on to the fingerboard) 
* - mute strings 
 
Intro 
 
D#||--------------------------------------|| 
A#||--------------------------15----------|| 
F#||------------------------12------------|| 
C#||-------12-0--0-12-13-12---------------|| play 8 times 
G#||--------------------------------------|| 
C#||-12-13--------------------------------|| 
 
Bridge 1 
 
D#||----------------------|| 
A#||----------------------|| 
F#||----------------------|| 
C#||-0--0-0---------------|| 
G#||-0--0-0---------------|| 
C#||-0--0-0---------------|| 
 
Riff 1 
 
D#||-------------------------------|| 
A#||-------------------------------|| 
F#||-------------------------------|| 
C#||-4-0-1-4-1-0-4-0-1-4-1-0-------|| play 3 times 
G#||-4-0-1-4-1-0-4-0-1-4-1-0-------|| 
C#||-4-0-1-4-1-0-4-0-1-4-1-0-------|| 
 
 
D#||-------------------------------|| 
A#||-------------------------------|| 
F#||--------------------------(3)--|| 
C#||-4-0-1-4-1-0-4-0-1-4-1-0-------|| play 4 times 
G#||-4-0-1-4-1-0-4-0-1-4-1-0-------|| 
C#||-4-0-1-4-1-0-4-0-1-4-1-0-------|| 
 
D#||-------------------------------|| 
A#||-------------------------------|| 
F#||-------------------------------|| 
C#||-4-0-1-4-1-0-4-0-1-4-1-0-------|| play once 
G#||-4-0-1-4-1-0-4-0-1-4-1-0-------|| 
C#||-4-0-1-4-1-0-4-0-1-4-1-0-------|| 
 
Riff 2 
 
D#||----------------------------------|| 
A#||----------------------------------|| 
F#||--------(3)------(3)--------------|| 
C#||----------------------------------|| play 3 times 
G#||----------------------------------|| 
C#||-2-0-2-----2-0-2-------2-3-2-0----|| 
 
D#||----------------------------------|| 
A#||----------------------------------|| 
F#||--------(3)------(3)--------------|| 
C#||-----------------------2-3-2-0----|| play once 
G#||-----------------------2-3-2-0----|| 
C#||-2-0-2-----2-0-2-------2-3-2-0----|| 
 
D#||--------------------------------------|| 
A#||--------------------------------------|| 
F#||--------------------------------------|| play 4 times 
C#||-2-0-2--------2-0-2---------2-3-2-0---|| 
G#||-2-0-2-(5)(5)-2-0-2-(5)(5)--2-3-2-0---|| 
C#||-2-0-2-(3)(3)-2-0-2-(3)(3)--2-3-2-0---|| 
 
Riff 1 (altered slightly) ie : only top string 
 
D#||--------------------------|| 
A#||--------------------------|| 
F#||--------------------------|| play 4 times 
C#||--------------------------|| 
G#||--------------------------|| 
C#||-4-0-1-4-1-0-4-0-1-4-1-0--|| 
 
Bridge 2 
 
D#||----------------------|| 
A#||----------------------|| 
F#||----------------------|| 
C#||-0--------------------|| 
G#||-0--------------------|| 
C#||-0--------------------|| 
 
Riff 3 
 
D#||-0--------------------------------------|| 
A#||-0-----------------7-7-7--------7-7-7-7-|| 
F#||----------------------------------------|| 
C#||-5---1----4----0-0-------0--0-0---------|| play 3 times 
G#||-5---1----4----0-0-------0--0-0---------|| 
C#||-5---1----4----0-0-------0--0-0---------|| 
 
D#||-0-----------------------------------------------|| 
A#||-0-----------------------------------------------|| 
F#||-------------------------------------------------|| 
C#||-5---1----4----0-0-------0--0-0----**-**-**-**---|| play this once 
G#||-5---1----4----0-0-------0--0-0----**-**-**-**---|| 
C#||-5---1----4----0-0-------0--0-0----**-**-**-**---|| 
 
Riff 2 
 
D#||----------------------------------|| 
A#||----------------------------------|| 
F#||--------(3)------(3)--------------|| 
C#||----------------------------------|| play 3 times 
G#||----------------------------------|| 
C#||-2-0-2-----2-0-2-------2-3-2-0----|| 
 
D#||----------------------------------|| 
A#||----------------------------------|| 
F#||--------(3)------(3)--------------|| 
C#||-----------------------2-3-2-0----|| play once 
G#||-----------------------2-3-2-0----|| 
C#||-2-0-2-----2-0-2-------2-3-2-0----|| 
 
D#||--------------------------------------|| 
A#||--------------------------------------|| 
F#||--------------------------------------|| play 4 times 
C#||-2-0-2--------2-0-2---------2-3-2-0---|| 
G#||-2-0-2-(5)(5)-2-0-2-(5)(5)--2-3-2-0---|| 
C#||-2-0-2-(3)(3)-2-0-2-(3)(3)--2-3-2-0---|| 
 
Riff 1 (altered version) 
 
D#||--------------------------|| 
A#||--------------------------|| 
F#||--------------------------|| play 4 times 
C#||--------------------------|| 
G#||--------------------------|| 
C#||-4-0-1-4-1-0-4-0-1-4-1-0--|| 
 
Bridge 2 
 
D#||----------------------|| 
A#||----------------------|| 
F#||----------------------|| 
C#||-0--------------------|| 
G#||-0--------------------|| 
C#||-0--------------------|| 
 
Riff 3 
 
D#||-0--------------------------------------|| 
A#||-0-----------------7-7-7--------7-7-7-7-|| 
F#||----------------------------------------|| 
C#||-5---1----4----0-0-------0--0-0---------|| play 3 times 
G#||-5---1----4----0-0-------0--0-0---------|| 
C#||-5---1----4----0-0-------0--0-0---------|| 
 
D#||-0-----------------------------------------------|| 
A#||-0-----------------------------------------------|| 
F#||-------------------------------------------------|| 
C#||-5---1----4----0-0-------0--0-0----**-**-**-**---|| play this once 
G#||-5---1----4----0-0-------0--0-0----**-**-**-**---|| 
C#||-5---1----4----0-0-------0--0-0----**-**-**-**---|| 
 
Intro 
 
D#||--------------------------------------|| 
A#||--------------------------15----------|| 
F#||------------------------12------------|| 
C#||-------12-0--0-12-13-12---------------|| play 8 times 
G#||--------------------------------------|| 
C#||-12-13--------------------------------|| 
 
Riff 1 
 
D#||-------------------------------|| 
A#||-------------------------------|| 
F#||--------------------------(3)--|| 
C#||-4-0-1-4-1-0-4-0-1-4-1-0-------|| play 4 times 
G#||-4-0-1-4-1-0-4-0-1-4-1-0-------|| 
C#||-4-0-1-4-1-0-4-0-1-4-1-0-------|| 
 
i put it like this so u can see what to play where 
plus it was quicker just copy and paste each piece but i 
think its easier to learn to play it thais way cause u can see 
what ur playing 
aaanyway 
thats porcelain buddah  good song 
not too hard to play 
have fun with it 
 
 

		  

See also:

tabs Ben lee - Cigarettes Will Kill You tabs Pete Murray - Tonic tabs The Choirboys - Run To Paradise (solo) tabs Pete Murray - My Time tabs The Vines - In The Jungle (ver. 1) tabs Wolfmother - Woman
e-chords

Other versions:

tabs Sunk Loto - Porcelain Buddah
auto scroll beats size up size down change color hide chords drawings
tab show chords e-chords YouTube Clip e-chords hide all tabs e-chords go to top tab

share