Sungha Jung

She Will Be Loved Tab

Sungha Jung

Difficulty: IntermediateIntermediate

by Mentalize

tuner correct add songbook print version text version save to e-mail
chordsukulelecavacokeyboardtabbassdrumsharmonicsflute Guitar Pro
close

there isn't a video lesson for this song

chords

She Will Be Loved

(Arranjo;Sungha Jung)

  		





     Verse:                                                     
     S      S E  E  E  E  E  E  E     E  E  E  Q    Q     E     
E||--------------------------------|----------------0---------| 
B||--------------------------------|--------------------------| 
G||--------------7--7--7--7-----7--|-----6-----6--------------| 
D||-----------7--7--7--------7-----|--------7------------(0)--| 
A||--------------------------------|--0--------0--------------| 
E||--6s-----7-------L--7-----------|--------------------------| 


                                         ^              
  S  S E  E  E  E  E  E  E     E  E  E   H         E    
----------------------------|-----------(0)--------L--| 
----------------------------|-----------(0)--------L--| 
----------7--7--7--7-----7--|-----6-----(6)--------L--| 
-------7--7--7--------7-----|--------7----------------| 
----------------------------|--0----------------------| 
--6s-7-------L--7-----------|-------------------------| 


  S  S E  E  E  E  E  E  E     E  E   E   Q    Q    E    
-------------------------0--|--------------------------| 
----------------------------|--------------------------| 
----------7--7--7--7--------|-----6-------4----2----0--| 
-------7--7--7--------7-----|--------(0)---------------| 
----------------------------|--0----------0------------| 
--6s-7-------L--7-----------|--------------------------| 


                                           ^              
  S  S E  E  E  E  E  E  E     E  E  E     H         E    
-------------------------0--|-----------<>(7)--------L--| 
----------------------------|-----------<>(7)--------L--| 
----------7--7--7--7--------|-----6---------------------| 
-------7--7--7--------7-----|--------7------------------| 
----------------------------|--0------------------------| 
--6s-7-------L--7-----------|---------------------------| 


  S  S E  E  E  E  E  E  E     E  E   E   Q    E  E  E    
-------------------------0--|---------------------------| 
----------------------------|---------------------------| 
----------7--7--7--7--------|-----6-------4----2-----0--| 
-------7--7--7--------7-----|--------(0)-------2--------| 
----------------------------|--0----------0-------0-----| 
--6s-7-------L--7-----------|---------------------------| 


                                         ^              
  S  S E  E  E  E  E  E  E     E  E  E   H         E    
-------------------------0--|-----------(0)--------L--| 
----------------------------|-----------(0)--------L--| 
----------7--7--7--7--------|-----6-----(6)--------L--| 
-------7--7--7--------7-----|--------7----------------| 
----------------------------|--0----------------------| 
--6s-7-------L--7-----------|-------------------------| 


  S  S E  E  E  E  E  E  E     E  E  E    E  E  E  E    E    
-------------------------0--|-----------1g0-----------1g0--| 
----------3--3--3--3--------|-----3-------------3----------| 
----------0--0--0-----0-----|----------------------0-------| 
-------4--------------------|--------2---------------------| 
--1s-2-------L--2-----------|--0-------------0-------------| 
----------------------------|------------------------------| 


                                ^                                               
  E  E  E  E  E  E  E  E     E  E  E  H        E     S  E.  E  E  E  E  E  E    
-----------------0-----0--|-----2-----0--------L--|------------------------0--| 
-----3-----3--------------|-----3-----------------|---------3--3--3--3--------| 
--------------------------|-----------------------|---------0--0--0-----0-----| 
--------4-----------4-----|--------2--------------|---------------------------| 
--2-----------2-----------|--0--------------------|--1s-2------L--2-----------| 
--------------------------|-----------------------|---------------------------| 


                                          ^                
  E  E  E    E  E  E  E    E     E  E  E  E  E  E  E  E    
-----------1g0-----------1g0--|-----------------0-----0--| 
-----3-------------3----------|-----3-----3--------------| 
----------------------0-------|-----------0--------0-----| 
--------2---------------------|--------4-----------------| 
--0-------------0-------------|--2-----------2-----------| 
------------------------------|--------------------------| 


                             Refrain:                              
     ^                                                             
  E  Q     E    H            E          E   E   E  E  E   E   E    
-----2---------(0)--------|----------------(0)-----------(0)-----| 
-----3--------------------|-----------------3---3--3-----(3)--3--| 
----------(0)-------------|-----------1g2---2---------2--(2)-----| 
--------------------------|--0--------------x------0------x------| 
--0-----------------------|--------------------------------------| 
--------------------------|--------------------------------------| 


  E  E   E   E  E  E   E   S  S    E  E   E   E  E  E   E   E    
--------(0)--0--------(0)-------|--------(0)-----------(0)-----| 
--2--3--(3)--------3--(0)-------|--------(3)--3--3-----(3)--3--| 
--0--0--(0)--------0--(0)-------|--------(0)-----------(0)-----| 
--------(2)---------------------|-----4--(4)--------4--(4)-----| 
--0------x---0--0------x---1s-2-|--2------x------2------x------| 
--------------------------------|------------------------------| 


  E  E   E   E  E  E   E   E     E     E    E   E  E  E   E   E    
--------(0)--0--------(0)-----|------------(0)-----------(0)-----| 
--2--3--(3)--------3--(3)-----|-------------3---3--3-----(3)--3--| 
--0--0--(0)-----------(0)--0--|-----1g(2)---2---------2--(2)-----| 
------------------------------|--0----------x------0------x------| 
------------------------------|----------------------------------| 
--3------x---3--3------x------|----------------------------------| 


  E  E   E   E  E  E   E   S  S    E  E   E   E  E  E   E   E    
--------(0)--0--------(0)-------|--------(0)-----------(0)-----| 
--2--3--(3)--------3--(0)-------|--------(3)--3--3-----(3)--3--| 
--0--0--(0)--------0--(0)-------|--------(0)-----------(0)-----| 
--------(2)---------------------|-----4--(4)--------4--(4)-----| 
--0------x---0--0------x---1s-2-|--2------x------2------x------| 
--------------------------------|------------------------------| 


                                 Chorus:                             
  E  E   E   E  E    E  E  E     E       E   E     Q    E   E   E    
--------(0)--0-------------5--|-------------(5)-----------------2--| 
--2--3--(3)--3-----2g3--3-----|--------------3-------------(3)--2--| 
--0--0--(0)-------------------|----------2---2---2g4----2--(2)-----| 
----------------x-------------|--0-----------x-----0--------x------| 
------------------------------|------------------------------------| 
--3------x---3----------------|------------------------------------| 


  E  E   E     Q    E   E   E     E  E   E     Q    E   E   E    
-----------------------(2)--5--|-----------------------(0)--2--| 
-----5--(5)------------(2)-----|--------(3)------------(0)-----| 
-----2--(2)------------(2)-----|-----2--(2)--2g4----2--(0)-----| 
--------(2)--2g4----2----------|--------(2)--------------------| 
--0------x-----0--------x------|--2------x-----2--------x------| 
-------------------------------|-------------------------------| 


  E  E   E     Q    E   E   E     W                  
-----0--(0)---------0----------|-------------------| 
--------(0)--2g3------------3--|-------------------| 
--------(0)------------(0)-----|-------------------| 
-----------------------(0)-----|-------------------| 
-------------------------------|-------------------| 
--3------x---2g3--------x------|--3----------------| 


  Verse:                                                             
                                       PM PM  PM  PM PM PM  PM  PM   
  S      S E   E   E  E  E   E   E     E  E   E   E  E  E   E   E    
---------------------------------0--|------------------------------| 
--------------(0)-----------(0)-----|------------------------------| 
---------------7---7--7--7--(7)-----|-----6-------4-----2-------0--| 
-----------7---7---7--------(7)-----|--------(0)--------2--(0)-----| 
------------------------------------|--0--0---x---0--0--0---x---0--| 
--6s-----7-L---x------7------x------|------------------------------| 


                                   PM PM  PM  PM PM                
  S  S E   E   E  E  E   E   E     E  E   E   E  E  E  S S  S  S   
-----------------------------0--|--------------------------------| 
----------(0)-----------(0)-----|--------------------------------| 
-----------7---7--7--7--(7)-----|-----6-------6------------------| 
-------7---7---7--------(7)-----|--------(7)---------------------| 
--------------------------------|--0--0---x---0--0--0----0h-2p-0-| 
--6s-7-L---x------7------x------|----------------------2---------| 


                                   PM PM  PM  PM PM PM  PM  PM   
  S  S E   E   E  E  E   E   E     E  E   E   E  E  E   E   E    
-----------------------------0--|------------------------------| 
----------(0)-----------(0)-----|------------------------------| 
-----------7---7--7--7--(7)-----|-----6-------4-----2-------0--| 
-------7---7---7--------(7)-----|--------(0)--------2--(0)-----| 
--------------------------------|--0--0---x---0--0--0---x---0--| 
--6s-7-L---x------7------x------|------------------------------| 


                                   PM PM      PM PM  PM            
  S  S E   E   E  E  E   E   E     E  E   E   E  E   E    E   E    
-----------------------------0--|-------------------(0)--(0)-----| 
----------(0)-----------(0)-----|-------------------(0)--(0)-----| 
-----------7---7--7--7--(7)-----|-----6-------6----------(0)-----| 
-------7---7---7--------(7)-----|--------(7)------------------0--| 
--------------------------------|--0--0---x---0--0---0----x------| 
--6s-7-L---x------7------x------|--------------------------------| 


  S  S E   E   E  E  E   E   E     E  E   E     E  E  E   E     E    
-----------------------------0--|-------------1g0-------------1g0--| 
----------(3)--3--3--3--(3)-----|-----3--(3)----------3--(3)-------| 
----------(0)-----0--0--(0)-----|-----0--(0)----------0--(0)-------| 
-------4--(0)-----------(0)-----|--------(2)-------------(2)-------| 
--1s-2-L---x------2------x------|--0------x--------0------x--------| 
--------------------------------|----------------------------------| 


  E  E   E   E  E  E   E   E     E  E   E     E  E  E   E   E    
-------------------0-------0--|-----2-------2g0----------------| 
-----3--(3)--3-----3--(3)--3--|-----3--(3)----3-----3--(3)-----| 
-----0--(0)--0--------(0)-----|--------(0)----------0--(0)-----| 
--------(4)-----4-----(4)-----|--------(2)-------------(2)-----| 
--2------x---2---------x------|--0------x-----0--0------x---0--| 
------------------------------|--------------------------------| 


  S  S E   E   E  E  E   E   E     E  E   E     E  E  E   E     E    
-----------------------------0--|-------------1g0-------------1g0--| 
----------(3)--3--3--3--(3)-----|-----3--(3)----------3--(3)-------| 
----------(0)-----0--0--(0)-----|-----0--(0)----------0--(0)-------| 
-------4--(0)-----------(0)-----|--------(2)-------------(2)-------| 
--1s-2-L---x------2------x------|--0------x--------0------x--------| 
--------------------------------|----------------------------------| 


  E  E   E   E  E  E   E   E     E  E   E     E  E  E   E   E    
-------------------0-------0--|-----2-------2g0----------------| 
-----3--(3)--3-----3--(3)--3--|-----3--(3)----3-----3--(3)-----| 
-----0--(0)--0--------(0)-----|--------(0)----------0--(0)--0--| 
--------(4)-----4-----(4)-----|--------(2)-------------(2)-----| 
--2------x---2---------x------|--0------x-----0--0------x------| 
------------------------------|--------------------------------| 


  Refrain:                                                               
  E          E   E   E  E  E   E   E     E  E   E   E  E  E   E   S  S   
----------------(0)-----------(0)-----|--------(0)--0--------(0)-------| 
-----------------3---3--3-----(3)--3--|--2--3--(3)--------3--(0)-------| 
-----------1g2---2---------2--(2)-----|--0--0--(0)--------0--(0)-------| 
--0--------------x------0------x------|--------(2)---------------------| 
--------------------------------------|--0------x---0--0------x---1s-2-| 
--------------------------------------|--------------------------------| 


  E  E   E   E  E  E   E   E     E  E   E   E  E  E   S  S  S  S   
--------(0)-----------(0)-----|-------------0--------------------| 
--------(3)--3--3-----(3)--3--|--2--3--(3)--------3--------------| 
--------(0)-----------(0)-----|--0--0--(0)--------0--(0)---------| 
-----4--(4)--------4--(4)-----|--------(0)-----------(0)---------| 
--2------x------2------x------|--------------------------0h-2h-4-| 
------------------------------|--3------x---3--3------x----------| 


  E  E   E   E  E  E   E   E     E  E   E   E  E  E   E   S  S   
--------(0)-----------(0)-----|--------(0)--0--------(0)-------| 
---------3---3--3-----(3)--3--|--2--3--(3)--------3--(0)-------| 
-----2---2---------2--(2)-----|--0--0--(0)--------0--(0)-------| 
--0------x------0------x------|--------(2)---------------------| 
------------------------------|--0------x---0--0------x---1s-2-| 
------------------------------|--------------------------------| 


  E  E   E   E  E  E   E   E     E  E   E   E  E    E  E  E    
--------(0)-----------(0)-----|--------(0)--0-------------5--| 
--------(3)--3--3-----(3)--3--|--2--3--(3)--3-----2g3--3-----| 
--------(0)-----------(0)-----|--0--0--(0)-------------------| 
-----4--(4)--------4--(4)-----|----------------x-------------| 
--2------x------2------x------|------------------------------| 
------------------------------|--3------x---3----------------| 


  Chorus:                                                                
  E       E   E     Q    E   E   E     E  E   E     Q      E   E    E    
-------------(5)-----------------2--|----------------------------------| 
--------------3-------------(3)--2--|-----5--(5)-------------------10--| 
----------2---2---2g4----2--(2)-----|-----2--(2)---------6g7--(7)------| 
--0-----------x-----0--------x------|--------(2)--2g4----6g7--(7)------| 
------------------------------------|--0------x-----0----------x-------| 
------------------------------------|----------------------------------| 


  E  E    E    Q    E   E   E     E  E  S S S S S S E  E   E    
----------7--------------------|------------------------------| 
--------(10)--10----7-------7--|--------------------------10--| 
--------------------0--(0)-----|-----9--------------7--7------| 
-----7-----------------(0)-----|------------------------------| 
------------------------x------|--0-----------5-7-9-----------| 
--7-------x----7---------------|--------5-7-9-----------------| 


  E  E   E     Q    E    E   E     E  E   E     Q    E   E    E    
--------------------------------|---------7----------------------| 
--------(7)------------(10)--7--|--------(7)--7g8----7--(7)--10--| 
-----7--(7)--7g9----7---(7)-----|-----9-----------------(9)------| 
--0------x-----0---------x------|--------------------------------| 
--------------------------------|--0------x-----0--------x-------| 
--------------------------------|--------------------------------| 


  E  E    E    Q    E   E   E     E  E   E   Q    E  E   E     
----------7--------------------|--------(0)-------0----------| 
--------(10)--10------------7--|--------(0)------------------| 
--------------------0--(0)-----|-----9--(9)--7---------------| 
-----7-----------------(0)-----|--------(0)------------------| 
------------------------x------|--0------x---0-------0--(0)--| 
--7-------x----7---------------|---------------------x-------| 


  Bridge:                                                             
  S       S E   E   E  E  E   E   E     E  E   E   E  E  E   E   E    
---------------(0)-----------(0)-----|--------(0)-----------(0)-----| 
---------------(0)-----------(0)-----|--------(0)-----------(0)-----| 
---------------(6)--6--6--6--(6)--6--|--------(6)--6--6--6--(6)--7--| 
------------7--(7)--7--7--7--(7)--7--|--------(7)--7--7--7--(7)--7--| 
-------------------------------------|--0--0---x------0------x------| 
--6s------7-L---x------7------x------|------------------------------| 


  E  E   E   E  E  E   E   E     E  E   E     Q    E   E  E    
--------(0)-----------(0)-----|--------(0)-------------------| 
--------(0)-----------(0)-----|--------(0)-------------------| 
--------(7)--7--7--7--(7)--7--|--------(7)-------------------| 
-----7--(7)--7--7--7--(7)-----|-----7--(7)--7g9----7p--5--9--| 
------------------------------|--0------------0--------------| 
--7------x---L--7------x------|---------x--------------x-----| 


  S  S E   E   E  E  E   E   E     E  E   E   E  E  E   E     E    
----------(0)-----------(0)-----|--------(0)-----------(0)-------| 
----------(0)-----------(0)-----|--------(0)-----------(0)-------| 
----------(6)--6--6--6--(6)--6--|--------(6)--6--6--6--(6)--6g7--| 
-------7--(7)--7--7--7--(7)--7--|--------(7)--7--7--7--(7)----7--| 
--------------------------------|--0--0---x------0------x--------| 
--6s-7-L---x------7------x------|--------------------------------| 


  E  E   E   E  E  E   E   E     E  E   E   Q    E  E   E     
--------(0)-----------(0)-----|--------(0)-------0----------| 
--------(7)--7--7-----(7)--7--|-----5--(5)--3---------------| 
--------(7)--7--7--7--(7)--7--|-----7--(7)------------------| 
-----7------------------------|------------------------(0)--| 
------------------------------|--0------x---0---------------| 
--7------x---L--7------x------|---------------------x-------| 


                      v         v                  
  E  E  E  Q    E  E  Q.        W                  
-----------------------------|-------------------| 
-----------3----------3------|--L----------------| 
--------0-------0-----0------|--L----------------| 
-----0-------------0--0------|--L----------------| 
----------------------2------|--L----------------| 
--3-------------------3------|--L----------------| 


  Verse:                                                     
              PM PM PM PM PM PM    PM PM PM PM PM PM PM PM   
  S      S E  E  E  E  E  E  E     E  E  E  E  E  E  E  E    
-----------------------------0--|--------------------------| 
--------------------------------|--------------------------| 
--------------7--7--7--7--------|-----6-----4-----2-----0--| 
-----------7--7--7--7--7--7-----|-----------------2--------| 
-----------------------------0--|--0--0--0--0--0--0--0--0--| 
--6s-----7-L--7--7--7--7--7-----|--------------------------| 


  PM PM PM PM PM PM PM PM              ^                                     
  S  S  E  E  E  E  E  E  E     E  E   H.               H        Q.     E    
--------------------------0--|--------(0)------------|---------------------| 
-----------------------------|--------(0)------------|---------------------| 
-----------7--7--7--7--------|-----6--(6)------------|------------------2--| 
--------7--7--7--7-----7-----|--------(7)------------|------------------0--| 
--------------------------0--|--0--------------------|---------------------| 
--6s-7--7--7--7--7--7--7-----|-----------------------|---------------------| 


  Refrain:                                                             
  E        E   E   E  E  E   E   E     E  E   E   E  E  E   E   S  S   
--------------(0)-----------(0)-----|--------(0)--0--------(0)-------| 
---------------3---3--3-----(3)--3--|--2--3--(3)--------3--(0)-------| 
--2--------2---2---------2--(2)-----|--0--0--(0)--------0--(0)-------| 
--0------------x------0------x------|--------(2)---------------------| 
------------------------------------|--0------x---0--0------x---1s-2-| 
------------------------------------|--------------------------------| 


  E  E   E   E  E  E   E   E     E  E   E   E  E  E   S  S  S  S   
--------(0)-----------(0)-----|-------------0--------------------| 
--------(3)--3--3-----(3)--3--|--2--3--(3)--------3--------------| 
--------(0)-----------(0)-----|--0--0--(0)--------0--(0)---------| 
-----4--(4)--------4--(4)-----|--------(0)-----------(0)---------| 
--2------x------2------x------|--------------------------0h-2h-4-| 
------------------------------|--3------x---3--3------x----------| 


  E  E   E   E  E  E   E   E     E  E   E   E  E  E   E   S  S   
--------(0)-----------(0)-----|--------(0)--0--------(0)-------| 
---------3---3--3-----(3)--3--|--2--3--(3)--------3--(0)-------| 
-----2---2---------2--(2)-----|--0--0--(0)--------0--(0)-------| 
--0------x------0------x------|--------(2)---------------------| 
------------------------------|--0------x---0--0------x---1s-2-| 
------------------------------|--------------------------------| 


  E  E   E   E  E  E   E   E     E  E   E   E  E    E  E  E    
--------(0)-----------(0)-----|--------(0)--0-------------5--| 
--------(3)--3--3-----(3)--3--|--2--3--(3)--3-----2g3--3-----| 
--------(0)-----------(0)-----|--0--0--(0)-------------------| 
-----4--(4)--------4--(4)-----|----------------x-------------| 
--2------x------2------x------|------------------------------| 
------------------------------|--3------x---3----------------| 


  Chorus:                                                                
  E       E   E     Q    E   E   E     E  E   E     Q      E   E    E    
-------------(5)-----------------2--|----------------------------------| 
--------------3-------------(3)--2--|-----5--(5)-------------------10--| 
----------2---2---2g4----2--(2)-----|-----2--(2)---------6g7--(7)------| 
--0-----------x-----0--------x------|--------(2)--2g4----6g7--(7)------| 
------------------------------------|--0------x-----0----------x-------| 
------------------------------------|----------------------------------| 


  E  E    E    Q    E   E   E     E  E  S S S S E  E  E   E    
----------7--------------------|-----------------------------| 
--------(10)--10----7-------7--|-------------------------10--| 
--------------------0--(0)-----|-----9-------------7--7------| 
-----7-----------------(0)-----|------------5-7-9------------| 
------------------------x------|--0-----7-9------------------| 
--7-------x----7---------------|-----------------------------| 


  E  E   E     Q    E    E   E     E  E   E     Q    E   E    E    
--------------------------------|---------7----------------------| 
--------(7)------------(10)--7--|--------(7)--7g8----7--(7)--10--| 
-----7--(7)--7g9----7---(7)-----|-----9-----------------(9)------| 
--0------x-----0---------x------|--------------------------------| 
--------------------------------|--0------x-----0--------x-------| 
--------------------------------|--------------------------------| 


  E  E    E    Q    E   E   E     E  E   E   Q    E  E  E    
----------7--------------------|------------------0--------| 
--------(10)--10------------7--|--------(0)----------------| 
--------------------0--(0)-----|-----9--(9)--7----------0--| 
-----7-----------------(0)-----|--------(0)----------------| 
------------------------x------|--0------x---0-------------| 
--7-------x----7---------------|---------------------x-----| 


                                   PM PM      PM PM PM      PM   
  E    E   E   E  E  E   E   E     E  E   E   E  E  E   E   E    
----------(0)-----------(0)-----|------------------------------| 
----------(0)--3--------(3)-----|-------------2----------------| 
-----1g2--(2)--2--------(2)-----|--------(0)--0--------(0)-----| 
--0--------x---0--0--0---x---0--|--------(2)--2--------(2)-----| 
--------------------------------|--0--0---x---0--0--0---x---0--| 
--------------------------------|------------------------------| 


   PM   PM PM  PM  PM PM PM  PM   PM  PM     PM   PM PM  PM  PM PM PM  PM  PM   
   S    S  E   E   E  E  E   E    S   S      S    S  E   E   E  E  E   E   E    
-----------------------------------------|------------------------------------| 
-------------------3---------------------|-------------------0----------------| 
--------------(0)--0--------(0)----------|--------------(0)--0--------(0)-----| 
--------------(4)--4--------(4)----------|--------------(0)-----------(0)-----| 
--(1)s-(2)-2---x---2--2--2---x---(0)-(0)-|--------------(5)-----------(5)-----| 
-----------------------------------------|--(2)s-(3)-3---x---3--3--3---x---3--| 


  PM PM      PM PM PM      PM    PM PM      PM PM PM      PM   
  E  E   E   E  E  E   E   E     E  E   E   E  E  E   E   E    
--------(0)-----------(0)-----|------------------------------| 
--------(0)--3--------(3)-----|-------------2----------------| 
--------(2)--2--------(2)-----|--------(0)--0--------(0)-----| 
--0--0---x---0--0--0---x---0--|--------(2)--2--------(2)-----| 
------------------------------|--0--0---x---0--0--0---x---0--| 
------------------------------|------------------------------| 


   PM   PM PM  PM  PM PM PM  PM   PM  PM     PM   PM PM  PM  PM PM PM  PM       
   S    S  E   E   E  E  E   E    S   S      S    S  E   E   E  E  E   E   E    
-----------------------------------------|----------------------0-------------| 
-------------------3---------------------|------------------------------------| 
--------------(0)--0--------(0)----------|---2-----------------------------2--| 
--------------(4)--4--------(4)----------|--------------(0)-----------(0)-----| 
--(1)s-(2)-2---x---2--2--2---x---(0)-(0)-|--------------(0)-----------(0)-----| 
-----------------------------------------|--(2)s-(3)-3---x---3--3--3---x------| 


  Q    E  E  E  E  E  E     Q.     E   H            Q    E  E  E  E  E  E    
-------------------------|-------------0---------|-------------------------| 
--3-------3-----3--------|------------(0)--------|--3-------------3--------| 
-------2--------------0--|--2--------------------|----------0-----------0--| 
--0----------0-----0-----|--2------2-------------|-------4-----------4-----| 
-------------------------|--0--------------------|--2----------2-----------| 
-------------------------|-----------------------|-------------------------| 


             ^                                    
  Q    E  E  H           S S S S  H.              
-------------0--------|--------0h-2------------|| 
-------------0--------|------3-----------------|| 
--2-------2--2--------|----2-------------------|| 
-------0--------------|--0---------------------|| 
----------------------|------------------------|| 
--3-------------------|------------------------|| 


 	 	 
	  

auto scroll beats size up size down change color hide chords drawings
tab show chords e-chords YouTube Clip e-chords hide all tabs e-chords go to top tab

share with facebook

Search Paypal