Sungha Jung

home > Sungha Jung

More Than Words Tab

Sungha Jung

Difficulty: ExpertExpert

by Mentalize

tuner correct add songbook print version text version save to e-mail
chordsukulelecavacokeyboardtabbassdrumsharmonicsflute Guitar Pro
chords

More Than Words

(Arranjo;Sungha Jung)

  		      ^                                                             
      E  E   E   Q    E   E   E     E  E   E    E   E  E   E   E    
D#||--3--3--(3)--3----3--(3)--3--|--L--3---3--------3--3--(3)-----| 
A#||--3--3--(3)--3----3--(3)--3--|--L--3---3--------3--3--(3)--1--| 
F#||--0--0--(0)--0----0--(0)-----|--------(0)--(0)--------(0)-----| 
C#||-----------------------------|--------------------------------| 
G#||---------x---2--------x---3--|--L------x--------3--2---x------| 
D#||--3--------------------------|--------------------------------| 


                           ^                                  
  E  E   E   E  E  E   E   E     Q     E   E  E  E   E   E    
----------------3--0--(0)--3--|-------(3)--3-----2--(2)--3--| 
--------(1)-----1--1--(1)--1--|-------(0)--3-----3--(3)--3--| 
--------(0)-----0-----(0)--0--|-------(0)-----------(2)--0--| 
-----2--(2)--2----------------|---------------0------x---x--| 
--0------x------0------x------|--3-----x--------------------| 
------------------------------|-----------------------------| 


  E.  S  E   Q    E   E   E     E  E   E    E   E  E   E   E    
------3-(3)--3----3---3---3--|--L--3---3--------3--3--(3)-----| 
------3-(3)--3----3---3---3--|--L--3---3--------3--3--(3)--1--| 
------0-(0)--0-------(0)-----|--------(0)--(0)--------(0)-----| 
-----------------------------|--------------------------------| 
---------x---2--------x---3--|--L------x--------3--2---x------| 
--3--------------------------|--------------------------------| 


                             ^                                
  E  S  S  E   E  E  E   E   E     Q    E  E  E  E   E   E    
------------------3--0--(0)--3--|-------3--3-----2--(2)--3--| 
----------(1)-----1--1--(1)--1--|-------0--3-----3--(3)--3--| 
----------(0)-----0-----(0)--0--|-------0-----------(2)--0--| 
-----0h-2-(2)--2----------------|-------------0------x---x--| 
--0--------x------0------x------|--3----x-------------------| 
--------------------------------|---------------------------| 


                ^                                                 
  E.  S  E   E  E  E   E   E     S  E.   E   E  E  E   E    E     
------3-(3)-------------------|-----------------3--3------------| 
------3-(3)-----0--3---3p--0--|--4s-5---(0)--3--3--3--(3)---3---| 
------0-(0)--0--0-----(0)-----|---------(0)-----------(0)--(0)--| 
----------------------(0)-----|---------(0)-----------(0)--(0)--| 
---------x------2------x------|--3-------x------3------x----x---| 
--3---------------------------|---------------------------------| 


  Q     E   E  E  E   E   E     E  S  S  E   E  E  E   E   E     
---------------3--3----------|---------------------------------| 
--------5------3--3--(1)--3--|-----3h-5-(5)--3-----1--(1)--1h--| 
-------(0)--0---------0------|----------(0)-----------(0)------| 
-------(0)-------------------|----------(0)-----0-----(0)------| 
--0-----x------0------x------|--3--------x-------------x-------| 
-----------------------------|---------------------------------| 


                ^                                                  
  E  E   E   E  E  E   E   E     S  E.   S  S E  E  E   E    E     
------------------------------|------------------3--3------------| 
-----3--(0)-----0--3---3p--0--|--4s-5----4s-5-3--3--3--(3)---3---| 
--------(0)--0--0-----(0)-----|---------(0)------------(0)--(0)--| 
--------(0)-----------(0)-----|---------(0)------------(0)--(0)--| 
----------------2------x------|--3-------x-------3------x----x---| 
--3------x--------------------|----------------------------------| 


  Q     E   E  E  E   E   E     E  S  S  E   E  E   E   E   E    
---------------3--3----------|---------------------------------| 
--------5------3--3--(1)--3--|-----3h-5-(5)--3--Ls--1---1p--0--| 
-------(0)--0---------0------|----------(0)------------(0)-----| 
-------(0)-------------------|----------(0)-----0------(0)-----| 
--0-----x------0------x------|--3--------x--------------x------| 
-----------------------------|---------------------------------| 


      ^                                                         
  E.  E.  E  E  E   E   S  S    Q     E   S  S Q     E   S  S   
-----------------------------|--------------------------------| 
----------------0--(0)--0h-1-|-------(1)--1p-0------(0)--1h-3-| 
------0------0-----(0)--0----|-------(2)-------2----(0)--2----| 
------4---4--------(2)-------|-------(2)------------(0)-------| 
------2----------------------|--0-----x--------------x--------| 
--0-------------0---x--------|--------------------------------| 


  Q     S   S E   E   E   E  E     E  E   E   Q    E   E   S  S   
--------------------------------|--------------------------3p-2-| 
-------(3)s-5-3--(0)------------|--------(0)-------3--(0)-------| 
-------(0)-------(0)--7p--5--4--|-----4--(0)--4-------(0)-------| 
-------(0)-------(0)------------|--------(0)----------(0)-------| 
--------------------------------|-------------------------------| 
--2-----x---------x-------------|--3------x---2--------x--------| 


  Q     E   E  S  S S  S  E   S  S    Q     E   Q.      E   E    
--3--------------------------------|------------------------0--| 
-------(0)-----4s-5-4s-5-(0)--4s-5-|--L----(0)--1------(1)-----| 
-------(0)--0--4s-5-4s-5-(0)--4s-5-|--L----(0)---------(0)-----| 
-------(0)---------------(0)-------|-------(0)---------(0)-----| 
--------x------0----------x--------|--0-----x-----------x------| 
--0--------------------------------|---------------------------| 


  ^                                          ^                 
  S  E.   E   E  E  E   E   E     E  E   E   Q    E   E   E    
--0h-2---(2)--0-----2---3---1--|-----1--(1)--1----3-------1--| 
--1------(1)-----------(0)-----|-----0--(0)--0----0--(0)-----| 
--2------(2)-----------(0)-----|-----0--(0)--0----0--(0)-----| 
--0-------x------0------x------|---------------------(0)-----| 
-------------------------------|---------x---2--------x------| 
-------------------------------|--3--------------------------| 


  E   E   E    E   S  S E   E   E     Q      E   E  Q     E   E    
--Lh--0----------------------------|-----------------------------| 
---------(0)-------1h-3-1--(0)--8--|--Ls----(4)--3-------(1)--1--| 
---------(0)--(0)--0----0--(0)-----|--------(0)----------(0)-----| 
---------(0)---------------(0)-----|--------(0)----------(0)-----| 
--3-------x--------3--------x------|--3------x------3-----x------| 
-----------------------------------|-----------------------------| 


                     ^                                          
  E   S  S  E    E   E  E   E   E     E  Q    E  E  S S E  E    
-----------------------------------|--------------------------| 
--Lh--3p-1-(0)-------0--0--(0)--3--|-----5------------5-x--5--| 
-----------(0)--(0)--0--0--(0)--4--|-----5------------5-x--5--| 
-----------(0)-------0-----(0)-----|--------------------------| 
-----------------------------------|--------------------x-----| 
--3---------x--------3------x------|--0-------x--x------------| 


           ^            ^         ^                            ^                 
  H        H            H         Q.      E     Q     E    E   E  E   E   S  S   
---------------------|-----------------------|----------------------------3s-5-| 
--5--------1---------|--7---------3-------0--|-------(0)-------0--3--(0)-------| 
--5--------0---------|--5---------5----------|-------(0)-------0-----(0)-------| 
-----------2~--------|------------0~---------|-------(0)--(0)--------(0)-------| 
--0------------------|--0~-------------------|-----------------2---------------| 
---------------------|-----------------------|--3-----x---------------x--------| 


                                    ^                             
  Q     E   E  Q     E   E     Q    E  E  T  S. T  S.  E   S  S   
--L---------3------------2--|------------------------------3s-5-| 
-------(0)----------(0)-----|-------------2h-3--2h-3--(0)-------| 
-------(0)----------(0)-----|-------2-----2-----2-----(0)-------| 
-------(0)----------(0)-----|-------4--4--------------(0)-------| 
----------------------------|--2----------2---------------------| 
--3-----x------2-----x------|--------------------------x--------| 


  E  E   E   E  E  E    E   E     Q     E    E   S  S S  S  E   S  S   
--L--3-------5-----5s---7---3--|-------------------------------------| 
--------(0)------------(0)-----|-------(0)-------4s-5-4s-5-(0)--4s-5-| 
--------(0)------------(0)-----|-------(0)--(0)--4s-5-4s-5-(0)--4s-5-| 
--------(0)--------------------|-------(0)-----------------(0)-------| 
----------------2--------------|--3--------------3----------x--------| 
--0------x--------------x------|--------x----------------------------| 


                                                              ^     
  Q    E  E  E  E   E   S  S    Q     E   E  T  S. T  S.  E   E     
-----------------------------|--------------------------------0h--| 
--L----5--3-----1--(0)--5p-3-|--5----(5)-----3h-5--3h-5--(0)--1---| 
--L----5--4-----2--(0)--5----|--5----(5)--5--5-----5-----(0)--2---| 
-------------------(0)-------|-------(0)-----------------(0)--0---| 
--3----x-----0---------------|---------------3--------------------| 
--------------------x--------|--0-----x-------------------x-------| 


                                              ^                 
  Q    E  E   E   S  E.  E     Q     E    E   E  E   E   S  S   
--2----2--2-----------------|----------------------------3s-5-| 
-------1--1--(0)--4s-5---3--|-------(0)-------0--3--(0)-------| 
-------2--2--(0)--4s-5---4--|-------(0)-------0-----(0)-------| 
-------x--x--(0)------------|-------(0)--(0)--------(0)-------| 
----------------------------|-----------------2---------------| 
--------------x-------------|--3-----x---------------x--------| 


  Q     E   S  S Q     E   E     E   E   E   E  T  S. T  S.  E   S  S   
--L---------5s-7-L------------|----------------------------------3s-5-| 
-------(0)------------(0)--1--|--Lh--3--(3)-----1h-3--1h-3--(0)-------| 
-------(0)------------(0)--2--|---------(2)--2--2-----2-----(0)-------| 
-------(0)------------(0)-----|---------(0)-----------------(0)-------| 
-----------------2------------|---------------------------------------| 
--3-----x--------------x---2--|----------x------2------------x--------| 


  E  E   E   E  E  E   E  E     Q     E    E   S  S S  S  E   S  S   
--L--3-------5-----5s--7--3--|-------------------------------------| 
--------(0)--3-----3s--5-----|-------(0)-------4s-5-4s-5-(0)--4s-5-| 
--------(0)------------------|-------(0)--(0)--4s-5-4s-5-(0)--4s-5-| 
--------(0)------------------|-------(0)-----------------(0)-------| 
----------------2------------|--3--------------3----------x--------| 
--0------x-------------------|--------x----------------------------| 


                                                            ^     
  Q    E  E  E  E   E   S  S    Q    E  E  T  S. T  S.  E   E     
-----------------------------|------------------------------0h--| 
--L----5--3-----1--(0)--5p-3-|--5----5-----3h-5--3h-5--(0)--1---| 
--L----5--4-----2--(0)--5----|--5----5--5--5-----5-----(0)--2---| 
-------------------(0)-------|-------------------------(0)--0---| 
--3----x-----0---------------|-------x-----3--------------------| 
--------------------x--------|--0-----------------------x-------| 


  Q    E  Q    E  E   E     Q     E   E  E  E   E   E    
--2----2--2----2--2h--3--|--L--------------------------| 
-------1--1----1--1------|-------(0)--0---------0---1--| 
-------2--2----2--2------|-------(0)--------2--(0)-----| 
-------x--x----x--x------|-------(0)-----------(0)-----| 
-------------------------|---------------2------x------| 
-------------------------|--3-----x--------------------| 


  E   E   E   E  E  E   E    S  S    Q       E   E  E  E   E   E    
-----------------3--3-------------|-----------------3--3----------| 
--Lh--0--(0)-----0--0---1----1h-3-|--L----3g(5)--3--3--3---1---3--| 
---------(2)--2--------(0)--(0)---|---------(0)-----------(0)-----| 
---------(0)-----------(0)--(0)---|---------(0)-----------(0)-----| 
--3-------x------3------x----x----|--0-------x------0------x------| 
----------------------------------|-------------------------------| 


  E  T  S.  E   E  E  Q    E     Q     E   E  E  E   E   E    
----------------------2----3--|-----------------------------| 
-----3h-5--(5)--3-----1----3--|-------(0)--0---------0---1--| 
-----------(0)--------2----0--|-------(0)--------2--(0)-----| 
-----------(0)-----0----------|-------(0)-----------(0)-----| 
--3---------x-----------------|---------------2------x------| 
------------------------------|--3-----x--------------------| 


  E   E   E   E  E  E   E    S  S    Q       E   E  E  E   E   E    
-----------------3--3-------------|-----------------3--3----------| 
--Lh--0--(0)-----0--0---1----1h-3-|--L----3g(5)--3--3--3---1---3--| 
---------(2)--2--------(0)--(0)---|---------(0)-----------(0)-----| 
---------(0)-----------(0)--(0)---|---------(0)-----------(0)-----| 
--3-------x------3------x----x----|--0-------x------0------x------| 
----------------------------------|-------------------------------| 


  E  T  S.  E   E  E  Q    E     Q     E   E  E  E   E   E    
----------------------2----3--|-----------------------------| 
-----3h-5--(5)--3-----1----3--|-------(0)--0---------0---1--| 
-----------(0)--------2----0--|-------(0)--------2--(0)-----| 
-----------(0)-----0----------|-------(0)-----------(0)-----| 
--3---------x-----------------|---------------2------x------| 
------------------------------|--3-----x--------------------| 


  E   E   E   E  E  E   E    S  S    Q       E   E  E  E   E   E    
-----------------3--3-------------|-----------------3--3----------| 
--Lh--0--(0)-----0--0---1----1h-3-|--L----3g(5)--3--3--3---1---3--| 
---------(2)--2--------(0)--(0)---|---------(0)-----------(0)-----| 
---------(0)-----------(0)--(0)---|---------(0)-----------(0)-----| 
--3-------x------3------x----x----|--0-------x------0------x------| 
----------------------------------|-------------------------------| 


                                 TP                     TP                    
  E  T  S.  E   E  E  Q    E     Q    Q    Q    Q       Q    Q    Q    Q      
----------------------2----3--|--3-------------------|--5-------------------| 
-----3h-5--(5)--3-----1----3--|------------3---------|------------3---------| 
-----------(0)--------2----0--|-------0---------0----|-------2---------2----| 
-----------(0)-----0----------|----------------------|----------------------| 
--3---------x-----------------|----------------------|----------------------| 
------------------------------|--3-------------------|--2-------------------| 


  TP        TP   TP      TP                     TP   TP   TP   TP     
  Q    Q    Q    Q       Q    Q    Q    Q       Q    Q    Q    Q      
--7---------8----7----|--4-------------------|--0----3----0----3----| 
------------8---------|------------5---------|-----------------1----| 
-------7---------7----|-------4---------4----|------------0---------| 
----------------------|----------------------|-------2--------------| 
--7-------------------|----------------------|--0-------------------| 
----------------------|--0-------------------|----------------------| 


  ^                                          
  Q    S  S  S  S  S  S  S  S  S  S  S  S    
--3----2h-3p-2h-3p-2h-3p-2h-3p-2h-3p-2h-3h-| 
--3----------------------------------------| 
--2----------------------------------------| 
--0----------------------------------------| 
-------------------------------------------| 
-------------------------------------------| 


  S  S  S  S  S  S  S  S  S  S  S  S     S  S  S  S  S  S  S  S  S  S  S  S    
--0h-2h-3h-5p-3p-2p-0h-2h-3h-5p-3p-2h-|--0h-2h-3h-5p-3p-2p-0h-2h-3h-5p-3p-2h-| 
--------------------------------------|--------------------------------------| 
--------------------------------------|--------------------------------------| 
--------------------------------------|--------------------------------------| 
--------------------------------------|--------------------------------------| 
--------------------------------------|--------------------------------------| 


  S  S  S  S  S  S  S  S  S  S  S  S    
--0h-2h-3h-5p-3p-2p-0h-2h-3h-5p-3p-2h-| 
--------------------------------------| 
--------------------------------------| 
--------------------------------------| 
--------------------------------------| 
--------------------------------------| 


     T             T             T               
  S  S  S  S  S  S S  S  S  S  S S  S  S  S  S   
--0h-7p-5p-3p-2p-0-----------------------------| 
-------------------7p-5p-3p-2p-0---------------| 
---------------------------------7p-5p-3p-2p-0-| 
-----------------------------------------------| 
-----------------------------------------------| 
-----------------------------------------------| 


  T             T             T                             ^      
  S  S  S  S  S S  S  S  S  S S  S  S  S  E     H           Q      
---------------------------------------------|-----------<>12----| 
---------------------------------------------|-----------<>12----| 
---------------------------------------------|-----------<>12----| 
--7p-5p-3p-2p-0------------------------------|-----------<>12----| 
----------------7p-5p-3p-2p-0----------------|-----------<>12----| 
------------------------------7p-5p-3p-2p-0--|--L--------<>12----| 


  H.              H.              H.              Q    Q    Q    Q      
--L------------|--L------------|--L------------|--L----0----2----3----| 
--L------------|--L------------|--L------------|--L-------------------| 
--L------------|--L------------|--L------------|--L-------------------| 
--L------------|--L------------|--L------------|--L-------------------| 
--L------------|--L------------|--L------------|--L-------------------| 
--L------------|--L------------|--L------------|--L-------------------| 


       TP                TP                     TP                    
  Q    Q    Q    Q       Q    Q    Q    Q       Q    Q    Q    Q      
-------3--------------|--3-------------------|--3-------------------| 
------------3---------|------------3---------|------------3---------| 
-------0---------0----|-------0---------0----|-------0---------0----| 
----------------------|----------------------|----------------------| 
----------------------|--3-------------------|--2-------------------| 
--3-------------------|----------------------|----------------------| 


  TP                     ^                                         
  Q    Q    Q    Q       E   E   E   E   S  S  S  S  S  S  S  S    
--3-------------------|--3s--5p--3h--5p--3h-5p-3h-5p-3h-5p-3h-5h-| 
------------3---------|--1s--3-----------------------------------| 
-------0---------0----|--0---------------------------------------| 
----------------------|--0---------------------------------------| 
--1-------------------|--0---------------------------------------| 
----------------------|------------------------------------------| 


                               ^         
  S  S  S  S  S  S  S  S  Q    E   E     
--3h-5p-3h-5p-3h-5p-3h-5p-3------------| 
-------------------------------0h--1h--| 
-------------------------------0-------| 
-------------------------------0h--2h--| 
-------------------------------0-------| 
-------------------------------3-------| 


  S  S  S  S  S  S  S  S  S  S  S  S  S  S  S  S    W                  
-------------------------------------------------|-------------------| 
--0h-1p-0h-1p-0h-1p-0h-1p-0h-1p-0h-1p-0h-1p-0h-1-|--0----------------| 
-----------0--L--0--L--0--L--0--L--0--L--0--L--0-|--L----------------| 
--0h-2p-0h-2p-0h-2p-0h-2p-0h-2p-0h-2p-0h-2p-0h-2-|--0----------------| 
-------------------------------------------------|-------------------| 
-------------------------------------------------|-------------------| 


  ^                                                                
  H.               H.              H.              H.              
--3-------------|--L------------|--L------------|--L------------|| 
--3-------------|--L------------|--L------------|--L------------|| 
--0-------------|--L------------|--L------------|--L------------|| 
--0~------------|--L------------|--L------------|--L------------|| 
--2-------------|--L------------|--L------------|--L------------|| 
--3-------------|--L------------|--L------------|--L------------|| 



 	 	 
	  

Search Paypal
auto scroll beats size up size down change color hide chords drawings
tab show chords e-chords YouTube Clip e-chords hide all tabs e-chords go to top tab