Sungha Jung

home > Sungha Jung

Falling Tab

Sungha Jung

Difficulty: nolevelnolevel

by Mentalize

tuner correct add songbook print version text version save to e-mail
chordsukulelecavacokeyboardtabbassdrumsharmonicsflute Guitar Pro
chords

Falling

(John Park)

Key:  E More
Falling Key BB
Falling Key CC
Falling Key C#C#
Falling Key DD(one step down)
Falling Key D#D#(half step down)
Falling Key EE(original key)
Falling Key FF(half step up)
Falling Key F#F#(one step up)
Falling Key GG
Falling Key G#G#
Falling Key AA
Falling Key A#A#
  		



     Q    E.  E.  E  E.  S    Q    E.  E.  E  E  S S   
E||-----------0------0---0-|-----------0------0--0-0-| 
B||-------1---1------1---1-|-------1---1------1--1-1-| 
G||-------0---0------0-----|-------0---0------0------| 
D||-------2----------------|-------2-----------------| 
A||--3------------3--------|--3------------3---------| 
E||------------------------|-------------------------| 


  Q    E.  E.  E  E  S  S     Q    E.  E.  E  E  S  S    
-----------0------0--0--0--|-----------0------0--0--0--| 
-------0---0------0--0-(0)-|-------0---0------0--0-(0)-| 
-------0---0------0--------|-------0---0------0--------| 
-------2-------------------|-------2-------------------| 
--2------------2-----------|--2------------2-----------| 
---------------------------|---------------------------| 


                           ^                                               
  Q    E.  E.  E.  S E     W                     E.  S S E  S Q    E.  S   
-----------0---0---0----|--0----------------||---------------------0---0-| 
-----------1---1---1----|--1----------------||---------------------1---1-| 
-------2---2---2--------|--2----------------||*--0-----2----0------0-----| 
--3----3-------3--------|--3----------------||*--2---0---2---------------| 
--3------------------3--|-------------------||---3------------3----------| 
--1------------------1--|-------------------||---------------------------| 


  E  E  E   S   S  E  S S  S  S  S  S    Q    E.  E.  E  E  E    
--L-----------------------------------|-----------3------------| 
--L-----1--(1)----------------1-----0-|-------0----------------| 
--------0--(0)-----0----2-------------|-------0----------2--0--| 
--------2------(2)----2---------------|-------2----------2-----| 
-----3-------------3------(x)---(x)---|--2------------2--------| 
--------------------------(x)---(x)---|------------------------| 


  Q    E   S   S  E  S S E  E     Q    E.  S  E   E.  S E    
-------------------------------|-------0---0----------0----| 
--0----0---0------1----3-------|-------1---1------1---1----| 
-------0---0--(0)-----------2--|-------2---2------2---2----| 
-------2-----------------------|-------3----------3--------| 
--2-------(x)-----2--2---x-----|------------------3--------| 
----------(x)------------x-----|--1----------(1)--------1--| 


  ^                               ^                         
  E.  S  E   E  S  E  S Q         Q    E.  S E  E  S S E    
------------------------------||--0----0---0--------------| 
------------------------------||--1----1---1---------1----| 
--2---0----------------------*||--2----2---2----2---------| 
--3----------3--3p-2--2-L----*||--3----3------------------| 
--3-----(x)-------------------||--3----------------x------| 
--------(x)-------------------||-------------1-----x---0--| 


                                               ^                                
  E.  S E  E  E.  S E  E     E  E  E  S  S     E  E  E   S   S  E  E   E   E    
--3---1----0--1---0-------|-----------------|--3-----0-------------0-------3--| 
--1---1----0--1---0----3--|--3-----3--3-----|--1-----1----------3-----(1)-----| 
--------------------------|--1-----1--1-(0)-|--0-----0--(0)-----0-----(0)-----| 
--------------------------|--------3--3-(0)-|--2------------(2)-------(2)-----| 
--------x-----------x-----|--------3----(0)-|--3--3--x----------3------x------| 
--1-----x-----1-----x-----|--1--1-----------|--------x-----------------x------| 


                                    ^                         
  E  E  E   S   S  E  E   E   E     E.  S E  E  E.  S E  E    
--------0------------------------|--3---1-1--0--0---1-1--3--| 
--------0----------3--1-------1--|--1---1-1--0--1---1-1--0--| 
--------0--(0)-----0-----(0)-----|--2---2-2---------2-------| 
---------------(2)-------(2)-----|--3-----------------------| 
--2--2--x-----------------x------|--x-----x-----------x-----| 
--------x-----------------x------|--1-----x-----1-----x-----| 


                                ^                                  
  Q    E.  S S S E  E  S  S     E  E  E   S   S  E  E   E     E    
--3----3---3--------3--------|--3-----0-------------0-------3g5--| 
--1----1---1-1------1--1-----|--1-----1----------3-----(1)-------| 
--2----2---2-2-2----2--2-(2)-|--0-----0--(0)-----0-----(0)-------| 
-------3-----3-3-------3-(3)-|--2------------(2)-------(2)-------| 
-------x---------------------|--3--3--x----------3------x--------| 
--1----x---------1-----------|--------x-----------------x--------| 


                                    ^                         
  E  E  E   S   S  E  E   E   E     E.  S E  E  E.  S E  E    
-----L--0------------------------|--3---1-1--0--0---1-1--3--| 
--------0----------3--1-------1--|--1---1-1--0--1---1-1--0--| 
--------0--(0)-----0-----(0)-----|--2---2-2---------2-------| 
---------------(2)-------(2)-----|--3-----------------------| 
--2--2--x-----------------x------|--x-----x-----------x-----| 
--------x-----------------x------|--1-----x-----1-----x-----| 


  Q    E.  S S S E  E  S  S       E  S S S E  S Q    E.  S   
--3----3---3--------3--------||----------------------0---0-| 
--1----1---1-1------1--------||----------------------1---1-| 
--2----2---2-2-2----2----(0)-||*--0--0---2----0------0-----| 
-------3-----3-3-------------||*--2--2-0---2---------------| 
-------x---------------x-----||---3--x----------3----------| 
--1----x---------1-----x-----||------x---------------------| 


  E  E  E   S   S  E  S S  S  S  S  S    S S E  E.  S  S   S  E  E  E    
--L-----------------------------------|-------------0------------------| 
--L-----1--(1)----------------1-----0-|--L---0------0------------------| 
--------0--(0)-----0----2-------------|----2----------(0)--------2--0--| 
--------2------(2)----2---------------|---------------(2)-(2)----2-----| 
-----3-------------3------(x)---(x)---|---------2-------------2--------| 
--------------------------(x)---(x)---|--------------------------------| 


  Q    E   S   S  E  S S E  E     Q    E.  S  E   E.  S E    
-------0-----------------------|-------0---0----------0----| 
--0----0---0------1----3-------|-------1---1------1---1----| 
-------0---0--(0)-----------2--|-------2---2------2---2----| 
-------------------------------|-------3----------3--------| 
--2-------(x)-----2--2---x-----|--3---------------3--------| 
----------(x)------------x-----|--1----------(1)--------1--| 


  ^                             ^                          
  E.  E.  E  S  E  E.  S S      Q    E  S S E  E  S S E    
----------------------------||--0----0--0-0--------------| 
----------------------------||--1----1--1-1---------1----| 
--2---0--------------------*||--2----2--2------2---------| 
--3-------3--3p-2--2-----2-*||--3----3-------------------| 
--3--------------------x----||--3-----------------x------| 
-----------------------x----||--------------1-----x---0--| 


                                                ^                                
  E.  S E  S S E.  S E  E     E  E  E  S  S     E  E  E   S   S  E  E   E   E    
--3---1----1-0-1---3----3--|--0--------------|--3-----0-------------0-------3--| 
--1---1--------1---1----1--|-----3--3--3-----|--1-----1----------3-----(1)-----| 
---------------------------|--------1--1-(0)-|--0-----0--(0)-----0-----(0)-----| 
---------------------------|--------3--3-(0)-|--2------------(2)-------(2)-----| 
--------x------------x-----|--------3----(0)-|--3--3--x----------3------x------| 
--1-----x------1-----x-----|--1--------------|--------x-----------------x------| 


                                    ^                         
  E  E  E   S   S  E  E   E   E     E.  S E  E  E.  S E  E    
--------0------------------------|--3---1-1--0--0---1-1--3--| 
--------0----------3--1-------1--|--1---1-1--0--1---1-1--0--| 
--------0--(0)-----0-----(0)-----|--2---2-2---------2-------| 
---------------(2)-------(2)-----|--3-----------------------| 
--2--2--x-----------------x------|--x-----x-----------x-----| 
--------x-----------------x------|--1-----x-----1-----x-----| 


                                ^                                  
  Q    E.  S S S E  E  S  S     E  E  E   S   S  E  E   E     E    
--3----3---3--------3--------|--3-----0-------------0-------3g5--| 
--1----1---1-1------1--1-----|--1-----1----------3-----(1)-------| 
--2----2---2-2-2----2--2-(2)-|--0-----0--(0)-----0-----(0)-------| 
-------3-----3-3-------3-(3)-|--2------------(2)-------(2)-------| 
-------x---------------------|--3--3--x----------3------x--------| 
--1----x---------1-----------|--------x-----------------x--------| 


                                    ^                         
  E  E  E   S   S  E  E   E   E     E.  S E  E  E.  S E  E    
-----L--0------------------------|--3---1-1--0--0---1-1--3--| 
--------0----------3--1-------1--|--1---1-1--0--1---1-1--0--| 
--------0--(0)-----0-----(0)-----|--2---2-2---------2-------| 
---------------(2)-------(2)-----|--3-----------------------| 
--2--2--x-----------------x------|--x-----x-----------x-----| 
--------x-----------------x------|--1-----x-----1-----x-----| 


                                ^                          
  Q    E.  S S S E  E  S  S     Q    E.  S S S E  E  S S   
--3----3---3--------3--------|--3----3---3---------------| 
--1----1---1-1------1--------|--1----1---1---------------| 
--2----2---2-2-2----2----(0)-|--0----0---0---0-----------| 
-------3-----3-3-------------|--2----2------------0--0-0-| 
-------x---------------x-----|--3----------x---3--3--x---| 
--1----x---------1-----x-----|-------------x---------x---| 


  Q    E.  S S S E  E  E     E.  S E  Q    E  E   E     
-----------0-0-0----------|---------------------------| 
--3----3---3-3-3-------0--|--0-------------0--0-------| 
-------0---0--------------|------2-2--2----2--2--(2)--| 
-------2------------2-----|------3-3--3----3--3--(3)--| 
--2----x---------2--2-----|--------3----------x-------| 
-------x---------0--x-----|--1-----x----------x-------| 


  ^                                  ^                           
  Q    E.  S S S S S S  S  S   S     Q    E  S S S S E  E  S S   
--0----0---0-0-0-0-0-0------------|--0----0----3-3-3-3--3--3-3-| 
--1----1---1-1-1-1-1-1s-3---------|--1----1--1-1-1-1-1--1--0-0-| 
--2----2---2-2-2-----2s-4---------|--0----0--0-0--------0--0---| 
--3----3------------------(x)-----|--2-------2----------2------| 
--3-----------------------(x)-(x)-|--3----x-------------x------| 
----------------------------------|-------x-------------x------| 


  ^                          ^                                ^                  
  Q    E.  E  S E  E  S S    Q    E  S S  S E.  S  S S  S     W                  
--3----3---3--3-3--3--3-3-|--0----0--0-0----0---0----0-----|--0----------------| 
--0----3---3--3-3--3--3-0-|--1----1--1-1----1---1----1-(1)-|--1----------------| 
--0----0---0-------0--0---|--2----2--2-0h-2-----0h-2-2-(2)-|--2----------------| 
--0----0-----------0------|--3------------------3----------|--3----------------| 
--2----x-----------x------|--3----x-------------x----------|--3----------------| 
-------x-----------x------|-------x-------------x----------|--1----------------| 


  E.  S S E  S Q    E.  S    E  E  E   S   S  E  S S  S  S  S  S   
--------------------0---0-|--L-----------------------------------| 
--------------------1---1-|--L-----1--(1)----------------1-----0-| 
--0-----2----0------0-----|--------0--(0)-----0----2-------------| 
--2---0---2---------------|--------2------(2)----2---------------| 
--3------------3----------|-----3-------------3------(x)---(x)---| 
--------------------------|--------------------------(x)---(x)---| 


  Q    E.  E.  E  E  E     Q    E   S   S  E  S S E  E    
-----------3------------|-------------------------------| 
-------0----------------|--0----0---0------1----3-------| 
-------0----------2--0--|-------0---0--(0)-----------2--| 
-------2----------2-----|-------2-----------------------| 
--2------------2--------|--2-------(x)-----2--2---x-----| 
------------------------|----------(x)------------x-----| 


                              ^                             
  Q    E.  S  E   E.  S E     E.  S  E   E  S  E  E.  S S   
-------0---0----------0----|------------------------------| 
-------1---1------1---1----|--------------------------0---| 
-------2---2------2---2----|--2---0-------------------0-0-| 
-------3----------3--------|--3----------3--3p-2--2---0-0-| 
------------------3--------|--3-----(x)---------------x---| 
--1----------(1)--------1--|--------(x)---------------x---| 


    ^                                                                  
    E  E  E   S   S  E  E   E   E     E  E  E   S   S  E  E   E   E    
|---3-----0-------------0-------3--|--------0------------------------| 
|---1-----1----------3-----(1)-----|--------0----------3--1-------1--| 
|*--0-----0--(0)-----0-----(0)-----|--------0--(0)-----0-----(0)-----| 
|*--2------------(2)-------(2)-----|---------------(2)-------(2)-----| 
|---3--3--x----------3------x------|--2--2--x-----------------x------| 
|---------x-----------------x------|--------x-----------------x------| 


  ^                                                       
  E.  S E  E  E.  S E  E     Q    E.  S S S E  E  S  S    
--3---1-1--0--0---1-1--3--|--3----3---3--------3--------| 
--1---1-1--0--1---1-1--0--|--1----1---1-1------1--1-----| 
--2---2-2---------2-------|--2----2---2-2-2----2--2-(2)-| 
--3-----------------------|-------3-----3-3-------3-(3)-| 
--x-----x-----------x-----|-------x---------------------| 
--1-----x-----1-----x-----|--1----x---------1-----------| 


  ^                                                                    
  E  E  E   S   S  E  E   E     E     E  E  E   S   S  E  E   E   E    
--3-----0-------------0-------3g5--|-----L--0------------------------| 
--1-----1----------3-----(1)-------|--------0----------3--1-------1--| 
--0-----0--(0)-----0-----(0)-------|--------0--(0)-----0-----(0)-----| 
--2------------(2)-------(2)-------|---------------(2)-------(2)-----| 
--3--3--x----------3------x--------|--2--2--x-----------------x------| 
--------x-----------------x--------|--------x-----------------x------| 


  ^                                                          ^                   
  E.  S E  E  E.  S E  E     Q    E.  S S S E  E  S  S       W                   
--3---1-1--0--0---1-1--3--|--3----3---3--------3---------||--0----------------|| 
--1---1-1--0--1---1-1--0--|--1----1---1-1------1---------||--1----------------|| 
--2---2-2---------2-------|--2----2---2-2-2----2----(0)-*||--0----------------|| 
--3-----------------------|-------3-----3-3-------------*||--2----------------|| 
--x-----x-----------x-----|-------x---------------x------||--3----------------|| 
--1-----x-----1-----x-----|--1----x---------1-----x------||-------------------|| 




 	 	 
	  

Search Paypal
auto scroll beats size up size down change color hide chords drawings
tab show chords e-chords YouTube Clip e-chords hide all tabs e-chords go to top tab