Sum 41

World War Seven

Sum 41

tabs

by  PAZIN

save to print version add songbook text version e-mail correct tuner
chordsukulelecavacokeyboardtabbassdrumsharmonicaflute Guitar Pro
close

there isn't a video lesson for this song

chords

World War Seven

	  		Intro- Starts off snare and flute thing then comes in with guitar 1: 
eb|------------------------------------------------------------|(pretty much 
Bb|------------------------------------------------------------| pick chord 
Gb|------------------------------------------------------------| shapes        
Db|-----9--9-----------9--9--------------9--------7------------| randomly) 
Ab|---10----10--10---10----10--10----10---10---9----9----------| 
Eb|-12---12---12---12---12---12----12--12----10-10---10/12-----| 
 
Intro Guitar 2- Come in after guitar 1 plays a few times:  
eb|-----------------------------------------| 
Bb|-8^---9^-8^--7--8^-----------------------| 
Gb|-----------------------------------------| 
Db|-----------------------------------------| 
Ab|-----------------------------------------| 
Eb|-----------------------------------------| 
Play a few times 
 
Intro Bass(for guitar)- just cause its  a cool part: 
eb|------------|------------|------------| 
Bb|------------|------------|------------| 
Gb|------------|------------|------------| 
Db|-2-/-14--14-|-2-/-14--14-|-2-/-14--14-| 
Ab|------------|------------|------------| 
Eb|------------|------------|------------| 
 
eb|--------------------------------------| 
Bb|--------------------------------------| 
Gb|-17h16-14--14-------------------------| 
Db|---------17--17---16----12-14---12-14-| 
Ab|--------------------------------------| 
Eb|--------------------------------------|4x 
 
Intro Part 2: 
Guitar 1: 
eb|-----------------------------------------------------| 
Bb|-----------------------------------------------------| 
Gb|-9-9-------------------------------------------------| 
Db|-9-9---------12-12---------10-10---------9-9---------| 
Ab|-7-7-9-10-9--12-12-9-10-9--10-10-9-10-9--9-9-9-10-12-| 
Eb|-------------10-10----------8--8---------7-7---------|4x 
 
Guitar 2 after guitar 1 plays its part twice: 
eb|------------------------------------------------------------| 
Bb|------------------------------------------------------------| 
Gb|------------------------------------------------------------| 
Db|-9-9-11-12-11--12-12-11-12-11--10-10-11-12-11--9-9-11-12-14-| 
Ab|-7-7-----------12-12-----------10-10-----------9-9----------| 
Eb|---------------10-10------------8--8-----------7-7----------|2x 
 
Pre Verse both guitars: 
eb|--------------------------------------| 
Bb|--------------------------------------| 
Gb|-9-9--9-9-9-9--9-9-9-9--9-9-9-9-9-----| 
Db|-9-9--9-9-9-9--9-9-9-9--9-9-9-9-9-----| 
Ab|-7-7--7-7-7-7--7-7-7-7--7-7-7-7-7-----| 
Eb|--------------------------------------| 
 
Verse Both Guitars: 
eb|------------------------------| 
Bb|------------------------------| 
Gb|-9--9-9-9--9-9-9--9-9-9-9-----| 
Db|-9--9-9-9--9-9-9--9-9-9-9-----| 
Ab|-7--7-7-7--7-7-7--7-7-7-7-----| 
Eb|------------------------------|2x 
 
eb|------------------------------| 
Bb|------------------------------| 
Gb|-7--7-7-7--7-7-7--7-7-7-7-----| 
Db|-7--7-7-7--7-7-7--7-7-7-7-----| 
Ab|-5--5-5-5--5-5-5--5-5-5-5-----| 
Eb|------------------------------|2x 
 
eb|------------------------------| 
Bb|------------------------------| 
Gb|-5--5-5-5--5-5-5--5-5-5-5-----| 
Db|-5--5-5-5--5-5-5--5-5-5-5-----| 
Ab|-3--3-3-3--3-3-3--3-3-3-3-----| 
Eb|------------------------------|2x 
 
eb|--------------------------------------------| 
Bb|--------------------------------------------| 
Gb|-4--4-4-4--4-4-4--4-4-4--7--7-7-7--7-7-7--8-| 
Db|-4--4-4-4--4-4-4--4-4-4--7--7-7-7--7-7-7--8-| 
Ab|-2--2-2-2--2-2-2--2-2-2--5--5-5-5--5-5-5--6-| 
Eb|--------------------------------------------| 
Repeat verse 2x 
 
Verse Part 2- Both guitars: 
eb|-------------------------------------------------------------------| 
Bb|---(triplets play a few time, too lazy to do 100% correct rythems)-| 
Gb|-5--5-5-5--5-5-5--5-5--------7--7-7-7--7-7-9--9-9------------------| 
Db|-5--5-5-5--5-5-5--5-5--------7--7-7-7--7-7-9--9-9-4-5--------------| 
Ab|-3--3-3-3--3-3-3--3-3-3-2-0--5--5-5-5--5-5-7--7-7------------------| 
Eb|-------------------------------------------------------------------| 
 
eb|-------------------------------------------------| 
Bb|-------------------------------------------------|(rythems not 100%) 
Gb|-5--5-5-5--5-5-5--5-5--------7--7-7-7----7----8--|  
Db|-5--5-5-5--5-5-5--5-5--------7--7-7-7---7----8---| 
Ab|-3--3-3-3--3-3-3--3-3-3-2-0--5--5-5-5--5--5-6--6-| 
Eb|-------------------------------------------------| 
 
Chorus: 
Guitar 1: 
eb|-12^--12-10----------------12^--12-10-----------| 
Bb|-----------12-10--12^----------------12-10^-12^-| 
Gb|----------------------9-------------------------| 
Db|------------------------------------------------| 
Ab|------------------------------------------------| 
Eb|------------------------------------------------| 
 
eb|-12^--12-10----------------12^--12-10-------------| 
Bb|-----------12-10--12^----------------12-----------| 
Gb|----------------------9-------------------7----8--| 
Db|-----------------------------------------7----8---| 
Ab|----------------------------------------5--5-6--6-| 
Eb|--------------------------------------------------| 
 
Chorus Guitar 2: 
eb|--------------------------------------------------------------------| 
Bb|--------------------------------------------------------------------| 
Gb|-----------------------------------5-5-5-5-5-5-5-5-5-5-5-5-5-5-5-5--| 
Db|-2-2-2-2-2-2-2-2-2-2-2-2-2-2-2-2---5-5-5-5-5-5-5-5-5-5-5-5-5-5-5-5--| 
Ab|-2-2-2-2-2-2-2-2-2-2-2-2-2-2-2-2---3-3-3-3-3-3-3-3-3-3-3-3-3-3-3-3--| 
Eb|-0-0-0-0-0-0-0-0-0-0-0-0-0-0-0-0------------------------------------| 
 
eb|--------------------------------------------------------------------| 
Bb|--------------------------------------------------------------------| 
Gb|-6-6-6-6-6-6-6-6-6-6-6-6-6-6-6-6---7-7-7-7-7-7-7-7-8-8-8-8-8-8-8-8--| 
Db|-6-6-6-6-6-6-6-6-6-6-6-6-6-6-6-6---7-7-7-7-7-7-7-7-8-8-8-8-8-8-8-8--| 
Ab|-4-4-4-4-4-4-4-4-4-4-4-4-4-4-4-4---5-5-5-5-5-5-5-5-6-6-6-6-6-6-6-6--| 
Eb|--------------------------------------------------------------------|2x 
 
Pre Verse both guitars: 
eb|--------------------------------------| 
Bb|--------------------------------------| 
Gb|-9-9--9-9-9-9--9-9-9-9--9-9-9-9-9-----| 
Db|-9-9--9-9-9-9--9-9-9-9--9-9-9-9-9-----| 
Ab|-7-7--7-7-7-7--7-7-7-7--7-7-7-7-7-----| 
Eb|--------------------------------------| 
 
Verse Both Guitars: 
eb|------------------------------| 
Bb|------------------------------| 
Gb|-9--9-9-9--9-9-9--9-9-9-9-----| 
Db|-9--9-9-9--9-9-9--9-9-9-9-----| 
Ab|-7--7-7-7--7-7-7--7-7-7-7-----| 
Eb|------------------------------|2x 
 
eb|------------------------------| 
Bb|------------------------------| 
Gb|-7--7-7-7--7-7-7--7-7-7-7-----| 
Db|-7--7-7-7--7-7-7--7-7-7-7-----| 
Ab|-5--5-5-5--5-5-5--5-5-5-5-----| 
Eb|------------------------------|2x 
 
eb|------------------------------| 
Bb|------------------------------| 
Gb|-5--5-5-5--5-5-5--5-5-5-5-----| 
Db|-5--5-5-5--5-5-5--5-5-5-5-----| 
Ab|-3--3-3-3--3-3-3--3-3-3-3-----| 
Eb|------------------------------|2x 
 
eb|--------------------------------------------| 
Bb|--------------------------------------------| 
Gb|-4--4-4-4--4-4-4--4-4-4--7--7-7-7--7-7-7--8-| 
Db|-4--4-4-4--4-4-4--4-4-4--7--7-7-7--7-7-7--8-| 
Ab|-2--2-2-2--2-2-2--2-2-2--5--5-5-5--5-5-5--6-| 
Eb|--------------------------------------------| 
Repeat verse 2x 
 
Verse Part 2- Both guitars: 
eb|-------------------------------------------------------------------| 
Bb|---(triplets play a few time, too lazy to do 100% correct rythems)-| 
Gb|-5--5-5-5--5-5-5--5-5--------7--7-7-7--7-7-9--9-9------------------| 
Db|-5--5-5-5--5-5-5--5-5--------7--7-7-7--7-7-9--9-9-4-5--------------| 
Ab|-3--3-3-3--3-3-3--3-3-3-2-0--5--5-5-5--5-5-7--7-7------------------| 
Eb|-------------------------------------------------------------------| 
 
eb|-------------------------------------------------| 
Bb|-------------------------------------------------|(rythems not 100%) 
Gb|-5--5-5-5--5-5-5--5-5--------7--7-7-7----7----8--|  
Db|-5--5-5-5--5-5-5--5-5--------7--7-7-7---7----8---| 
Ab|-3--3-3-3--3-3-3--3-3-3-2-0--5--5-5-5--5--5-6--6-| 
Eb|-------------------------------------------------| 
 
Chorus: 
Guitar 1: 
eb|-12^--12-10----------------12^--12-10-----------| 
Bb|-----------12-10--12^----------------12-10^-12^-| 
Gb|----------------------9-------------------------| 
Db|------------------------------------------------| 
Ab|------------------------------------------------| 
Eb|------------------------------------------------| 
 
eb|-12^--12-10----------------12^--12-10-------------| 
Bb|-----------12-10--12^----------------12-----------| 
Gb|----------------------9-------------------7----8--| 
Db|-----------------------------------------7----8---| 
Ab|----------------------------------------5--5-6--6-| 
Eb|--------------------------------------------------| 
 
Chorus Guitar 2: 
eb|--------------------------------------------------------------------| 
Bb|--------------------------------------------------------------------| 
Gb|-----------------------------------5-5-5-5-5-5-5-5-5-5-5-5-5-5-5-5--| 
Db|-2-2-2-2-2-2-2-2-2-2-2-2-2-2-2-2---5-5-5-5-5-5-5-5-5-5-5-5-5-5-5-5--| 
Ab|-2-2-2-2-2-2-2-2-2-2-2-2-2-2-2-2---3-3-3-3-3-3-3-3-3-3-3-3-3-3-3-3--| 
Eb|-0-0-0-0-0-0-0-0-0-0-0-0-0-0-0-0------------------------------------| 
 
eb|--------------------------------------------------------------------| 
Bb|--------------------------------------------------------------------| 
Gb|-6-6-6-6-6-6-6-6-6-6-6-6-6-6-6-6---7-7-7-7-7-7-7-7-8-8-8-8-8-8-8-8--| 
Db|-6-6-6-6-6-6-6-6-6-6-6-6-6-6-6-6---7-7-7-7-7-7-7-7-8-8-8-8-8-8-8-8--| 
Ab|-4-4-4-4-4-4-4-4-4-4-4-4-4-4-4-4---5-5-5-5-5-5-5-5-6-6-6-6-6-6-6-6--| 
Eb|--------------------------------------------------------------------|2x 
 
Pre solo both guitars: 
eb|--------------------------------------| 
Bb|--------------------------------------| 
Gb|-9-9--9-9-9-9--9-9-9-9--9-9-9-9-9-----| 
Db|-9-9--9-9-9-9--9-9-9-9--9-9-9-9-9-----| 
Ab|-7-7--7-7-7-7--7-7-7-7--7-7-7-7-7-----| 
Eb|--------------------------------------| 
 
Solo guitar 1:  
eb|------------------------------------------------------------------------| 
Bb|-(pick very fast)-------------------------------------------------------| 
Gb|------------------------------------14-14-14-14-16-16-16-16-17-17-17-17-| 
Db|-14-14-14-14-16-16-16-16-17-17-17-17------------------------------------| 
Ab|------------------------------------------------------------------------| 
Eb|------------------------------------------------------------------------| 
 
eb|----------------------------------------| 
Bb|----------------------------------------| 
Gb|-12^--12^-14^-14^-14^-14^-14h12--12-----| 
Db|----14^------------------------14-------| 
Ab|----------------------------------------| 
Eb|----------------------------------------| 
 
eb|-----------------------------------------------------| 
Bb|-----------------------------------------------------| 
Gb|-14^-14^-14^-14^-14h12--12--14^-14^-14^-14^-14h12-14-| 
Db|----------------------14-----------------------------| 
Ab|-----------------------------------------------------| 
Eb|-----------------------------------------------------| 
 
eb|-----------------------------------------------------| 
Bb|-----------------------------------------------------| 
Gb|-15^-15^-15^-15^-15h13-15--17^-17^-17^-17^-17h15-17--| 
Db|-----------------------------------------------------| 
Ab|-----------------------------------------------------| 
Eb|-----------------------------------------------------| 
 
eb|-------------------------------------| 
Bb|-------------------------------------| 
Gb|-19^-19^-19^-19^-19h17--19-----------| 
Db|-------------------------------------| 
Ab|-------------------------------------| 
Eb|-------------------------------------| 
 
eb|----------------------------------------------------------------------| 
Bb|----------------------------------------------------------------------| 
Gb|-16-14H12--16-14H12--16-14H12--16-14H12--16-14H12--16-14H12--16-14H12-| 
Db|----------------------------------------------------------------------| 
Ab|----------------------------------------------------------------------| 
Eb|----------------------------------------------------------------------| 
 
eb|----------------------------------------------------------------| 
Bb|----------------------------------------------------------------| 
Gb|-16-14H12-------------------------------------------------------| 
Db|----------16-14H12-16-14H12-16-14H12-16-14H12-16-14H12-16-14H12-| 
Ab|----------------------------------------------------------------| 
Eb|----------------------------------------------------------------| 
 
eb|-----------------------------------------------------------| 
Bb|-----------------------------------------------------------| 
Gb|--------------------16-14H12--16-14H12--16-14H12--16-14H12-| 
Db|-16-14H12--16-14H12----------------------------------------| 
Ab|-----------------------------------------------------------| 
Eb|-----------------------------------------------------------| 
 
eb|------------------------------------------------------------| 
Bb|-17-15H13--17-15H13--17-15H13--17-15H13--19-17H15--19-17H15-| 
Gb|------------------------------------------------------------| 
Db|------------------------------------------------------------| 
Ab|------------------------------------------------------------| 
Eb|------------------------------------------------------------| 
 
eb|------------------------------------------------------------| 
Bb|-19-17H15--19-17H15--19-17H15--19-17H15--19-17H15--19-17-19-| 
Gb|------------------------------------------------------------| 
Db|------------------------------------------------------------| 
Ab|------------------------------------------------------------| 
Eb|------------------------------------------------------------| 
 
eb|----------------------------------15H12-15H12-15H12-15H12--| 
Bb|-17^-17^-17^-17^-17^-17^-17^-17^-------12----12----12---12-| 
Gb|-----------------------------------------------------------| 
Db|-----------------------------------------------------------| 
Ab|-----------------------------------------------------------| 
Eb|-----------------------------------------------------------| 
 
eb|-15H12-15H12-15H12-15H12---17-17-17-17-15-15-14-14-14-14-15-15-| 
Bb|------12----12----12----12--(PICK INSANLY FAST)----------------| 
Gb|---------------------------------------------------------------| 
Db|---------------------------------------------------------------| 
Ab|---------------------------------------------------------------| 
Eb|---------------------------------------------------------------| 
 
eb|-17-17-19-19-20-20-20-20-19-19-20-20-22-22-22-22-20-20-22-22^^-| 
Bb|----------------------------(some wierd doubling effect here)--| 
Gb|---------------------------------------------------------------| 
Db|---------------------------------------------------------------| 
Ab|---------------------------------------------------------------| 
Eb|---------------------------------------------------------------| 
 
Chorus: 
Guitar 1: 
eb|-12^--12-10----------------12^--12-10-----------| 
Bb|-----------12-10--12^----------------12-10^-12^-| 
Gb|----------------------9-------------------------| 
Db|------------------------------------------------| 
Ab|------------------------------------------------| 
Eb|------------------------------------------------| 
 
eb|-12^--12-10----------------12^--12-10-------------| 
Bb|-----------12-10--12^----------------12-----------| 
Gb|----------------------9-------------------7----8--| 
Db|-----------------------------------------7----8---| 
Ab|----------------------------------------5--5-6--6-| 
Eb|--------------------------------------------------| 
 
Chorus Guitar 2: 
eb|--------------------------------------------------------------------| 
Bb|--------------------------------------------------------------------| 
Gb|-----------------------------------5-5-5-5-5-5-5-5-5-5-5-5-5-5-5-5--| 
Db|-2-2-2-2-2-2-2-2-2-2-2-2-2-2-2-2---5-5-5-5-5-5-5-5-5-5-5-5-5-5-5-5--| 
Ab|-2-2-2-2-2-2-2-2-2-2-2-2-2-2-2-2---3-3-3-3-3-3-3-3-3-3-3-3-3-3-3-3--| 
Eb|-0-0-0-0-0-0-0-0-0-0-0-0-0-0-0-0------------------------------------| 
 
eb|--------------------------------------------------------------------| 
Bb|--------------------------------------------------------------------| 
Gb|-6-6-6-6-6-6-6-6-6-6-6-6-6-6-6-6---7-7-7-7-7-7-7-7-8-8-8-8-8-8-8-8--| 
Db|-6-6-6-6-6-6-6-6-6-6-6-6-6-6-6-6---7-7-7-7-7-7-7-7-8-8-8-8-8-8-8-8--| 
Ab|-4-4-4-4-4-4-4-4-4-4-4-4-4-4-4-4---5-5-5-5-5-5-5-5-6-6-6-6-6-6-6-6--| 
Eb|--------------------------------------------------------------------|2x 
 
Ending both guitars: 
eb|--------------------------------------| 
Bb|--------------------------------------| 
Gb|-9-9--9-9-9-9--9-9-9-9--9-9-9-9-9-----| 
Db|-9-9--9-9-9-9--9-9-9-9--9-9-9-9-9-----| 
Ab|-7-7--7-7-7-7--7-7-7-7--7-7-7-7-7-----| 
Eb|--------------------------------------| 
 
Enjoy 

		  

See also:

tabs Mac Demarco - Freaking Out The Neighborhood tabs Sum 41 - Hell Song tabs Sum 41 - Deadliner tabs Mac Demarco - Chamber Of Reflection tabs Sum 41 - How you remind Me(Nickelback cover) tabs Mac Demarco - Cooking Up Something Good
e-chords

Other versions:

tabs Sum 41 - World War Seven
auto scroll beats size up size down change color hide chords drawings
tab show chords e-chords YouTube Clip e-chords hide all tabs e-chords go to top tab

share