Sum 41

Walking Disaster

Sum 41

tabs Intermediate intermediate

by  YEAHBUDDY321

save to print version add songbook text version e-mail correct tuner
chordsukulelecavacokeyboardtabbassdrumsharmonicaflute Guitar Pro
close

there isn't a video lesson for this song

chords

Walking Disaster

	  		Intro: 
e---------7-7---7-7-7--------------7-7----7-7-7---- 
B-0-0-0-0----0--------0--000-0-0-0-----0--------0-- 

e------------------ 
B------------------ 
G--4--------------- 
D--4---4---6---2--- 
A--2---4---6---2--- 
E------2---4---0---  X2 

e------------------ 
B------------------ 
G----------4------- 
D--6---2---4---4--- 
A--6---2---2---4--- 
E--4---0-------2---  X2 

e--2222-2---2222-2----- 
B--4444---4-4444---4--- 
G--4444-----4444------- 
D--4444-----4444------- 
A--2222-----2222------- 
E--2222-----2222------- X2 

e-------------------------------------------- 
B-------------------------------------------- 
G-11-   -13-    -15-    -16-    -16\--------- 
D-11    -13-    -15-    -16-    -16\\-X------ 
A-9- X8 -11- X8 -13- X8 -14- X8 -14\\\X------ 
E-------------------------------------X------ 

Quick sixteenths (above) 

Sung verse with base accompany 

Pre-Chorus: 
e------------------------------- 
B------------------------------- 
G------------------------------- 
D--2--2--6--4------------------- 
A--2--2--6--4------------------- 
E--0--0--4--2------------------- X4 




Chorus: 
e--------------------------------------------------------------------| 
B--------------------------------------------------------------------| 
G-4-4-4-4-4-4-4-4----------------------------------------------------| 
D-4-4-4-4-4-4-4-4--4-4-4-4-4-4-4-4--6-6-6-6-6-6-6-6--2-2-2-2-2-2-2-2-| (1x) 
A-2-2-2-2-2-2-2-2--4-4-4-4-4-4-4-4--6-6-6-6-6-6-6-6-2-2-2-2-2-2-2-2-| 
E------------------2-2-2-2-2-2-2-2--4-4-4-4-4-4-4-4-0-0-0-0-0-0-0-0-| 

Repeat riffs and listen to song @ www.sum41.com 
		  

See also:

tabs Sum 41 - Pain For Pleasure tabs Sum 41 - Slipping Away tabs The Weeknd - Rolling Stone tabs Sum 41 - Some Say tabs Sum 41 - The Hell Song tabs Mac Demarco - Freaking Out The Neighborhood
e-chords

Other versions:

tabs Sum 41 - Walking Disaster
auto scroll beats size up size down change color hide chords drawings
tab show chords e-chords YouTube Clip e-chords hide all tabs e-chords go to top tab

share