Sum 41

The Hell Song

Sum 41

tabs Advanced advanced

save to print version add songbook text version e-mail correct tuner
chordsukulelecavacokeyboardtabbassdrumsharmonicaflute Guitar Pro
close

there isn't a video lesson for this song

chords

The Hell Song

	  		 
Intro (Guitarra 1) 
e|-----------------------------------------------| 
B|-----------------------------------------------| 
G|-----------------------------------------------| 
D|-----------------------------------------------| 3x 
A|------4h-6---7-2h-4-6--2-2h-4-6-2--7-7-6-6-4-4-| 
E|--4-7------7---------------------2-------------| 
 
Intro (Guitarra 2) 
e|-------------------------------| 
B|-------------------------------| 
G|--------------44444------------| 
D|--66666-22222-44444-44444------| 2x 
A|--66666-22222-22222-44444------| 
E|--44444-00000-------22222------| 
 
Riff 1 
e|---------------------------------------| 
B|---------------------------------------| 
G|------------------4444444--------------| 
D|--6666666-2222222-4444444-4444444------| 2x 
A|--6666666-2222222-2222222-4444444------| 
E|--4444444-0000000---------2222222------| 
    ####### ####### ####### ####### 
 
Riff 2 
e|--------------------------------------------------| 
B|--------------------------------------------------| 
G|------------------------44-4-44-4-----------------| 
D|--66-6-66-6--22-2-22-2--44-4-44-4--44-4-44-4------| 2x 
A|--66-6-66-6--22-2-22-2--22-2-22-2--44-4-44-4------| 
E|--44-4-44-4--00-0-00-0-------------22-2-22-2------| 
    ##   ##    ##   ##    ##   ##    ##   ## 
 
------------- 
| Intro  2x | 
| Riff 2 4x | 
------------- 
 
Refrao 
e|---------------------------------------| 
B|---------------------------------------| 
G|----------9999999-4444444--------------| 
D|--6666666-9999999-4444444-4444444------| 4x 
A|--6666666-7777777-2222222-4444444------| 
E|--4444444-----------------2222222------|     
 
No fim do 4º refrao, quando o carinha diz "anymore...", toque isso: 
e|---------------| 
B|---------------| 
G|---------------| 
D|--66-66-66-6~--| 
A|--66-66-66-6~--| 
E|--44-44-44-4~--| 
 
Solo (A segunda guitarra faz a mesma base do refrao) 
 
            |.  SEGURE  .|          |.  SEGURE  .| 
e|-------------------------------------------------------------------------| 
B|--9--------9---9---9---x-9--------9---9---9---x--------------------------| 
G|--11b-(13)-11b-11b-11d-x-11b-(13)-11b-11b-11b-x--9/11-11-11-11-11-9-8----| 
D|----------------------------------------------------------------------11-| 
A|-------------------------------------------------------------------------| 
E|-------------------------------------------------------------------------| 
				 
e|-------------------------------------------------------------------------| 
B|-------------------------------------------------------------------------| 
G|-------------------------------*-*--*--*--*--*--*-*--*-------------------| 
D|--/11h13p11--/9h11p9--/7h9p7---9-11-13-14-13-11-9-11-13--8h9-8h9-8h9-8h9-| 
A|-------------------------------------------------------------------------| 
E|-------------------------------------------------------------------------| 
 
e|-------------------------------------------------------------------------| 
B|-------------------------------------------------------------------------| 
G|-------------------------------------------------------------------------| 
D|--9h11-9h11-9h11-9h11--11h13-11h13-11h13-11h13--13h14-13h14-13h14-13h14--| 
A|-------------------------------------------------------------------------| 
E|-------------------------------------------------------------------------| 
 
e|-------------------------------------------------------------------------| 
B|--9---x-11--11--x-12--12--x-14--14---x--14b-14b-14b-14p12-----14b-14b-12-| 
G|--11b-x-13b-13b-x-14b-14b-x-16b-16b--x--------------------13-------------| 
D|-------------------------------------------------------------------------| 
A|-------------------------------------------------------------------------| 
E|-------------------------------------------------------------------------| 
 
e|------------14------------------14------------------------------------------| 
B|--14-12-14b---14d-12--14-12-14b---14d-12--12-11-11h12p11--------------------| 
G|---------------------------------------------------------11-13-11----11-8---| 
D|-----------------------------------------------------------------13-----11--| 
A|----------------------------------------------------------------------------| 
E|----------------------------------------------------------------------------| 
 
e|-----------------------------------------------------| 
B|-----------------------------------------------------| 
G|-----------------------------------------------------| 
D|--9-11-11-9-11-11-9-11-11-9------------------6-4-6-x-| 
A|----------------------------11~~~~~----------6-4-6-x-| 
E|---------------------------------------------4-2-4-x-| 
 
Riff 3  
e|--------------------------------------------------------------------| 
B|--------------------------------------------------------------------| 
G|------------------4444444--------------------------4444444----------| 
D|--6666666-2222222-4444444-4444444--6666666-2222222-4444444-4~~~-----| 
A|--6666666-2222222-2222222-4444444--6666666-2222222-2222222-4~~~-----| 
E|--4444444-0000000---------2222222--4444444-0000000---------2~~~-----| 
    ####### ####### ####### #######  ####### ####### ####### 
 
Chorus 2 
e|-------------------------------------------| 
B|-------------------------------------------| 
G|----------9999999-4444444------------------| 
D|--6666666-9999999-4444444-4-2-1------------| 
A|--6666666-7777777-2222222------4-2-1-------| 
E|--4444444---------------------------2------| 
 
--------------------------------- 
|Intro Guitarra 1 e 2 juntas  . | 
--------------------------------- 
 
Acaba em: 
e|-------| 
B|-------| 
G|-------| 
D|--6~~--| 
A|--6~~--| 
E|--4~~--| 
 
 
_______________________________________________________ 
Contribuição: lucas pozzobon([email protected]) 

		  

Full key step upFull key step up
Half key step upHalf key step up
Half key step downHalf key step down
Full key step downFull key step down
hide glossary

See also:

tabs Sum 41 - Deadliner tabs Sum 41 - Billy Spleen tabs Sum 41 - Hell Song tabs Mac Demarco - Babys Wearing Blue Jeans tabs Mac Demarco - Dreaming tabs Sum 41 - Walking Disaster
e-chords

Other versions:

tabs Sum 41 - The Hell Song tabs Sum 41 - The Hell Song (ver. 2)
auto scroll beats size up size down change color hide chords drawings
tab show chords e-chords YouTube Clip e-chords hide all tabs e-chords go to top tab

share