Sum 41

Pain For Pleasure

Sum 41

tabs Advanced advanced

save to print version add songbook text version e-mail correct tuner
chordsukulelecavacokeyboardtabbassdrumsharmonicaflute Guitar Pro
close

there isn't a video lesson for this song

chords

Pain For Pleasure

	  		riff 1
e|--------------------------------------------------------|
B|--------------------------------------------------------|
G|----8---------------------------------------------------| 
D|----8---------------------------------------------------|
A|----6---------------------------------------------------|
E|--------------------------------------------------------|
   pm.........faded out of pm

riff 2
e|--------------------------------------------------------|
B|--------------------------------------------------------|
G|--8-8-----------6-6-------------------------------------| 
D|--8-8-----------6-6----------9-9---------8-8------------|
A|--6-6--8/9-8-6--4-4-8/9-8-6--9-9-8/9-8-6-8-8-8/9-8-6----|
E|-----------------------------7-7---------6-6------------|

riff 2 (cont.)
e|--------------------------------------------------------|
B|--------------------------------------------------------|
G|---8-8---------6-6--------------------------------------|
d|---8-8--7h8-6--6-6-7h8-6---9-9-7h8-6---8-8-7h8-6-6------|
A|---6-6-------9-4-4------9--9-9------9--8-8------9-------|
E|---------------------------7-7---------6-6--------------|

riff 3
e|---7-5--5-------7-5---5------7-5---5------7-5---5---5---|
B|-------7--7-6-------7---7--------7--7---------7----7----|
G|-------------------------8------------7-----------------| 
D|--------------------------------------------------------|
A|--------------------------------------------------------|
E|--------------------------------------------------------|

riff 4
e|--------------------------------------------------------|
B|--------------------------------------------------------|
G|-8-8--6-6-----------------------------------------------| 
D|-8-8--6-6--9-9--8-8-------------------------------------|
A|-6-6--4-4--9-9--8-8-------------------------------------|
E|-----------7-7--6-6-------------------------------------|
 pm..................

riff 5
e|--------------------------------------------------------|
B|--------------------------------------------------------|
G|-8-8--12--8---------------------------------------------| 
D|-8-8--12--8---------------------------------------------|
A|-6-6--10--6---------------------------------------------|
E|--------------------------------------------------------|
i dont have my guitar right now so im not sure about this riff here
		  

See also:

tabs Sum 41 - Deadliner tabs Sum 41 - Billy Spleen tabs Sum 41 - Hell Song tabs Mac Demarco - Babys Wearing Blue Jeans tabs Mac Demarco - Dreaming tabs Sum 41 - Walking Disaster
e-chords

Other versions:

tabs Sum 41 - Pain For Pleasure
auto scroll beats size up size down change color hide chords drawings
tab show chords e-chords YouTube Clip e-chords hide all tabs e-chords go to top tab

share