Sum 41

Fat Lip

Sum 41

tabs Beginner beginner

save to print version add songbook text version e-mail correct tuner
chordsukulelecavacokeyboardtabbassdrumsharmonicaflute Guitar Pro
close

there isn't a video lesson for this song

chords

Fat Lip

	  		intro:
(guitar 1)
e|-----------------------------------------------------------------------------------------------|
B|-----------------------------------------------------------------------------------------------|
G|-----------------------------------------------------------------------------------------------|
D|----------6---------4----------6----------4/2-----------6-----------4----------6-----------4/2-|
A|-----------------------------------------------------------------------------------------------|
E|-4*-5*-7*---4*-5*-7*---4*-5*-7*---4*-5*-7*------4*-5*-7*----4*-5*-7----4*-5*-7*---4*-5*-7*-----|

riff:
(guitar 1)
e|----------------------|
B|----------------------|
G|------------------2---|
D|--2-2-2-2---2-2-2-2---|
A|--2-2-2-2---2-2-2-0---|
E|--0-0-0-0---0-0-0-----|2x

(guitar 2)
e|------------------------------------------------------------------------|
B|------------------------------------------------------------------------|
G|------------------------------------------------------------------------|
D|-------6-------4-------6-------4/2--------6-------4-------6-------4/2---|
A|------------------------------------------------------------------------|
E|-4-5-7---4-5-7---4-5-7---4-5-7------4-5-7---4-5-7---4-5-7---4-5-7-------|
 
verso:(guitar 1) 
e|---------------------------------------------|
B|---------------------------------------------|
G|---------------------------------------------|
D|------2/1/2--4-4-----2-2--2/1/2--------------|
A|--2-2--------2-2-----0-0----------0----------|
E|--0-0----------------------------------4-2---|

verso 2:(guitar 2)      i know im not the one...
e|---------------------------------------------------------------------------|
B|---------------------------------------------------------------------------|
G|---------------------------------------------------------------------------|
D|-x-x-9-x-x-9-x-x-9-x-x-9-x-x-6-x-x-6-x-x-4-x-x-4---------------------------|
A|-x-x-9-x-x-9-x-x-9-x-x-9-x-x-6-x-x-6-x-x-4-x-x-4---------------------------|
E|-x-x-7-x-x-7-x-x-7-x-x-7-x-x-4-x-x-4-x-x-2-x-x-2---------------------------|

                        its the attention that we...
e|----------------------------------------------------------------------|
B|----------------------------------------------------------------------|
G|----------------------------------------------------------------------|
D|-x-x-9-x-x-9-x-x-6-x-x-6-x-x-4-x-x-4-----then----9/8/7/6--------------|
A|-x-x-9-x-x-9-x-x-6-x-x-6-x-x-4-x-x-4-------------9/8/7/6--------------|
E|-x-x-7-x-x-7-x-x-4-x-x-4-x-x-2-x-x-2-------------7/6/5/4--------------|

refrão:  2x             i dont wanna...
e|-------------------------------------|
B|-------------------------------------|
G|-9-----------------------------------|
D|-9-9-9-9-11-11---6/7-7--6-6/7-7------|
A|-7-9-9-9-11-11---6/7-7--6-6/7-7------|
E|---7-7-7--9--9---4/5-5--4-4/5-5------|

riff, verso 1, verso 2, refrão

bridge:     
e|------------------------------------------------------------------------|
B|------------------------------------------------------------------------|
G|--------------------------------2---------------------------------------|
D|-2-2-x-2-2-x-x-2--2-2-x-2-2-x-x-2--2-2-x-2-2-x-x-2--2-2-x-x-2-2---------|
A|-2-2-x-2-2-x-x-2--2-2-x-2-2-x-x-0--2-2-x-2-2-x-x-2--2-2-x-x-2-2---------|
E|-0-0-x-0-0-x-x-0--0-0-x-0-0-x-x----0-0-x-0-0-x-x-0--0-0-x-x-0-0---------|

bridge 2: 4x
e|--------------------------------------------------|
B|--------------------------------------------------|
G|-----9---------9----------7-----------------------|
D|---9---9-----9---9------7---7---------------------|
A|-7---------6----------5-------------------7-------|
E|-----------------------------------5---5----------|

bridge 3:  (guitar 1)    i'm a no goodick...
e|------------------|
B|------------------|
G|-------------9----|
D|-7/9-9---7/9-9----|
A|-7/9-9---7/9-7----|
E|-5/7-7---5/7------|

guitar 2 vem depois de um tempo
e|------|
B|------|
G|------|
D|-7*---|
A|-7*---|
E|-5*---|

refrão 4x 

Baixo:

Intro: o baixo toca dps do assobio, ou seja lah oq é akele barulho. 
Junto com a Bateria.

G|-----------------------------| 
D|-----------------------------| 
A|-----2------0------2------0--| X2 
E|-0-0----0-0----0-0----0-0----| 

Verso
G|-----------------------| 
D|-----------------------| 
A|------22---00----0-----| x2 
E|-00----------------4-2-| 

G|----------------------------------| 
D|----------------------------------| 
A|-----------------44444444---------| x2 
E|-0000000000000000--------55555555-| 

Chorus:
G|----------------------------------| 
D|----------------------------------| 
A|-7777----44444444-----------------| x2 
E|-----7777--------4444555544445555-| 

INTRO Espera a batera entrar e depois...
VERSE
CHORUS

Interlude:
G|-------------------------------------------------------------| 
D|-------------------------------------------------------------| 
A|-------------------------------0-----------------------------| x1 
E|-00----00----00----00----00-------00----00----00----00----00-| 

Esse Riff, é a parte lenta da música
(Don't count on me...)
G|---------------------------------| 
D|---------------------------------| 
A|-9-9-999-8-8-888-6-6-666---------| x2
E|-------------------------5-5-555-| 

Depois da parte lenta:
G|---------------------------------------------------------------------------| 
D|---------------------------------------------------------------------------| 
A|----------2-----------2-w a i t----------2-------------------2-----------2-| x1 
E|-02-2--02----02-2--02-----------02-2--02----02-2--02--02--02----02-2--02---|

Depois da parada é assim:
G|--------------------------------------| 
D|--------------------------------------| 
A|--------------------------------------| x1 
E|-\\\\00000000000000000000000000000000-| 

Toque o Chorus, depois fika mais lento...
G|---------------------------------| 
D|---------------------------------| 
A|-7-7-7-7-------------------------| X2 
E|---------7-7-7-7-4-4-5-5-4-4-5-5-| 

Toca a intro de novo, e pra acaba...

Outro:
G|-------------| 
D|-------------| 
A|-------------| 
E|-0-0-----0-0-|
		  

auto scroll beats size up size down change color hide chords drawings
tab show chords e-chords YouTube Clip e-chords hide all tabs e-chords go to top tab

share