Sum 41

All Messed Up

Sum 41

tabs Beginner beginner

save to print version add songbook text version e-mail correct tuner
chordsukulelecavacokeyboardtabbassdrumsharmonicaflute Guitar Pro
close

there isn't a video lesson for this song

chords

All Messed Up

	  		 
INTRO: Guitar 2 
|------------------------------------------------------- 
|------------------------------------------------------- 
|----------------8-8-8----------9-9-9----------11-11-11- X2 
|-9-9-9----------9-9-9----------9-9-9----------11-11-11- 
|-9-9-9----------6-6-6----------7-7-7-----------9--9--9- 
|-7-7-7------------------------------------------------- 
 
Guitar 1 
|--------7-7--------------7-7-------------7-7------------7-7---- 
|-----------7-7--------------7-7-------------7-7------------7-7- 
|--------------------------------------------------------------- X2 
|--------------------------------------------------------------- 
|--------------------------------------------------------------- 
|--------------------------------------------------------------- 
 
PRE-VERSE FILL 
Guitar 1&2 
|-------------------------------------- 
|-------------------------------------- 
|-9/4--4-4-4-4-4-4-4-4-4-4-4-4-4-4-4-4-  
|-9/4--4-4-4-4-4-4-4-4-4-4-4-4-4-4-4-4- 
|-7/2--2-2-2-2-2-2-2-2-2-2-2-2-2-2-2-2- 
|-------------------------------------- 
pm     . . . . . . . . . . . .  
 
 
VERSE 
Guitar 1 
|----------------------------------           
|----------------------------------           
|------------------4-4-4-4-4-4-4-4- X3 
|-2-2-2-2-2-2-2-2--4-4-4-4-4-4-4-4-           
|-2-2-2-2-2-2-2-2--2-2-2-2-2-2-2-2-           
|-0-0-0-0-0-0-0-0------------------           
 
cont'd 
Guitar 1 
|---------------------------------------------------- 
|---------------------------------------------------- 
|-2-2-2-2-2-2-2-2------------------------------------ 
|-2-2-2-2-2-2-2-2--4-4-4-4-4-4-4-4-4-4-4-4-4-4-4-4-4- 
|-0-0-0-0-0-0-0-0--4-4-4-4-4-4-4-4-4-4-4-4-4-4-4-4-4- 
|------------------2-2-2-2-2-2-2-2-2-2-2-2-2-2-2-2-2- 
pm                 . . . . . . . . . . . . . . . . . 
 
 
CHORUS 
Guitar 1&2 
|-------------------------------------------------------------------- 
|-------------------------------------------------------------------- 
|------------------4-4-4-4-4-4-4-4-------------------2-2-2-2-2-2-2-2- 
|-2-2-2-2-2-2-2-2--4-4-4-4-4-4-4-4--2-2-2-2-2-2-2-2--2-2-2-2-2-2-2-2- 
|-2-2-2-2-2-2-2-2--2-2-2-2-2-2-2-2--2-2-2-2-2-2-2-2--0-0-0-0-0-0-0-0- 
|-0-0-0-0-0-0-0-0-------------------0-0-0-0-0-0-0-0------------------ 
 
cont'd 
Guitar 1&2 
|---------------------------------- 
|---------------------------------- 
|-4-4-4-4-4-4-4-4--2-2-2-2-2-2-2-2- X2  
|-4-4-4-4-4-4-4-4--2-2-2-2-2-2-2-2-     
|-2-2-2-2-2-2-2-2--0-0-0-0-0-0-0-0- 
|---------------------------------- 
 
CHORUS Both guitars 
|-------------    |--------------------------------- 
|-------------    |--------------------------------- 
|------------- X3 |--------------------------------- 
|-7-7-7-7-7-6-    |-4-4-4-4-4-4-4-4-4-4-4-4-4-4-4-4- 
|-7-7-7-7-7-6-    |-4-4-4-4-4-4-4-4-4-4-4-4-4-4-4-4- 
|-5-5-5-5-5-4-    |-2-2-2-2-2-2-2-2-2-2-2-2-2-2-2-2- 
 
 
INTERLUDE 
Guitar 2 
|-------------------------------------------------------------------- 
|-------------------------------------------------------------------- 
|-9-9-9-9-9-9-9-9--6-6-6-6-6-6-6-6----------------------------------- X4 
|-9-9-9-9-9-9-9-9--6-6-6-6-6-6-6-6--7-7-7-7-7-7-7-7--9-9-9-9-9-9-9-9- 
|-7-7-7-7-7-7-7-7--4-4-4-4-4-4-4-4--7-7-7-7-7-7-7-7--9-9-9-9-9-9-9-9- 
|-----------------------------------5-5-5-5-5-5-5-5--7-7-7-7-7-7-7-7- 
 
|-------------------------------------------------------------------- 
|-------------------------------------------------------------------- 
|-9-9-9-9-9-9-9-9--6-6-6-6-6-6-6-6----------------------------------- X2 
|-x-x-x-x-x-x-x-x--x-x-x-x-x-x-x-x--7-7-7-7-7-7-7-7--9-9-9-9-9-9-9-9- 
|-7-7-7-7-7-7-7-7--4-4-4-4-4-4-4-4--x-x-x-x-x-x-x-x--x-x-x-x-x-x-x-x- 
|-----------------------------------5-5-5-5-5-5-5-5--7-7-7-7-7-7-7-7- 
 
Guitar 1 
|--------------------------------------------------------------- 
|--------------------------------------------------------------- 
|--------------------------------------------------------------- 
|-7-9-9-9-9-9-9-7-9-9-9-9-9-9-7-9-9-9-9-9-9-9-9-9-9-9-9-9-9-9-9- 
|-x-x-x-x-x-x-x-x-x-x-x-x-x-x-x-x-x-x-x-x-x-x-x-x-x-x-x-x-x-x-x- 
|-5-7-7-7-7-7-7-5-7-7-7-7-7-7-5-7-7-7-7-7-7-7-7-7-7-7-7-7-7-7-7- 
 
 
SOLO 
Guitar 2 
|----------------------------------- 
|----------------------------------- 
|-4-4-----4-2-----4-4-----4-2----4~- X4 
|-4-4--2--4-2-6---4-4--2--4-2-6--4~- 
|-2-2--2--2-0-6---2-2--2--2-0-6--2~- 
|------0------4--------0------4----- 
 
|-7-7-7-------7----7-7-7-------7---7~- 
|-------7-7-7---7--------7-7-7---7---- 
|------------------------------------- X2 
|------------------------------------- 
|------------------------------------- 
|------------------------------------- 
 
  Outro: 
|------------------------------------| 
|------------------------------------| 
|------------------------------------|  
|-9-9-9-9-9-9-9-9-9-9-9-9-9-9-9-9-9/-| 
|-9-9-9-9-9-9-9-9-9-9-9-9-9-9-9-9-9/-| 
|-7-7-7-7-7-7-7-7-7-7-7-7-7-7-7-7-7/-| 
pm. . . . . . . . . . . . 
 
_______________________________________________________ 
Contribuição: Sérgio([email protected]) 

		  

See also:

tabs Sum 41 - Still Waiting (ver. 1) tabs Sum 41 - In Too Deep tabs Adam Gontier - It's All In Your Hands tabs Mac Demarco - Dreaming tabs Black Pistol Fire - Suffocation Blues tabs My Darkest Days - Porn Star Dancing (acoustic)
e-chords

Other versions:

tabs Sum 41 - All Messed Up
auto scroll beats size up size down change color hide chords drawings
tab show chords e-chords YouTube Clip e-chords hide all tabs e-chords go to top tab

share