Sum 41

88

Sum 41

tabs Advanced advanced

by  PAZIN

save to print version add songbook text version e-mail correct tuner
chordsukulelecavacokeyboardtabbassdrumsharmonicaflute Guitar Pro
close

there isn't a video lesson for this song

chords

88

	  		Guitar 1 (intro) *distortion*  
e------------------------------------------------------------------| 
G------------------------------------------------------------------| 
B--------------------------------------------22--------------------| Play 
D----5-4-22------5-4-22------4-5-44------4-5-----------------------|  4x 
A-------------3-3-3-3-----0-0-0-0-----2-2-2-2----------------------| 
E-0-0-0-0----------------------------------------------------------| 
 
Guitar 2 (intro) *semi clean* - come in with bass and drums 
e--7~--------------------------------------|      e----------------------| 
G--8~-----10---10--12-12-12-12-12-12-12-12-|      G-12-8x-13-8x-10-8x-12-| 
B--9~--------9------9--9--9--9--9--9--9--9-| then B--9-----9-----9-----9-| 
D--9~--------------------------------------| play D----------------------| 
A--7~--------------------------------------| this A----------------------| 
E------------------------------------------|  2x  E----------------------| 
 
Guitar 1 *clean* "Wait......" 
e-----0-----0-----0-----|                           e---0---| 
G-----0-----1-----1-----|   Find Strumming Pattern  G---0---| 
B-----0-----0-----2-----|                           B---0---| 
D-----2-----2-----2-----|                   End On  D---2---| 
A-----2-----3-----0-----|                           A---2---| 
E-----0-----x-----x-----|                           E---0---| 
 
Guitar 1 *distortion* "Cuz I feel like..." 
e---------------------------------------------|      
G---------------------------------------------|      
B---------------7-7-7-7-7-5-5-5-5-5-----------|Play  
D---2-2-2-2-2-2-7-7-7-7-7-5-5-5-5-5-5-5-5-5-5-| 2x   
A---2-2-2-2-2-2-5-5-5-5-5-3-3-3-3-3-5-5-5-5-5-|      
E---0-0-0-0-0-0---------------------3-3-3-3-3-|      
 
..continued 
e-----------------------------------------------------------------------| 
G-----------------------------------------------------------------------| 
B---5-5-5-5-5-----------7-7-7-7-7-9-9-9-9-9--5----7---------------------| 
D---5-5-5-5-5-5-5-5-5-5-7-7-7-7-7-9-9-9-9-9--5-8x-7-8x-5555-5555-5555-5-| 
A---3-3-3-3-3-5-5-5-5-5-5-5-5-5-5-7-7-7-7-7--3----5----5555-5555-5555-5-| 
E-------------3-3-3-3-3--------------------------------3330-3330-3330-3-| 
 
Guitar 1 *palm muted* 
e------------------------------------------------------------------| 
G--------------------------play-twice------------------------------| 
B------------------------------------------------------------------| 
D--2-2-2-2-4-4-4-4-2-2-2-2-4-4-4-4-5-5-5-5-2-2-2-2-2-2-2-2-4-4-4-4-| 
A--2-2-2-2-2-2-2-2-2-2-2-2-2-2-2-2-3-3-3-3-0-0-0-0-0-0-0-0-2-2-2-2-| 
E--0-0-0-0---------0-0-0-0-----------------------------------------| 
 
Guitar 1 *distortion* 
e--------------------------------------------------------------------------| 
G--------------------------------------------------------------------------| 
B------------------5-5-5-5-5----------------------------5-5-5-5-5-7-7-7-7-7| 
D-2.2.2.2.2.2.2.2.-5-5-5-5-5-5-5-5-5-5-2.2.2.2.2.2.2.2.-5-5-5-5-5-7-7-7-7-7| 
A-2.2.2.2.2.2.2.2.-3-3-3-3-3-5-5-5-5-5-2.2.2.2.2.2.2.2.-3-3-3-3-3-5-5-5-5-5| 
E-0.0.0.0.0.0.0.0.-----------3-3-3-3-3-0.0.0.0.0.0.0.0.--------------------| 
 

		  

auto scroll beats size up size down change color hide chords drawings
tab show chords e-chords YouTube Clip e-chords hide all tabs e-chords go to top tab

share